MUZBANK



A MOST COMPLETE BANK OF MUSIC INFORMATION

МУЗЫКАЛЬНО-ИНФОРМАЦИОННЫЙ БАНК







    SSparta • Assemble The Empire (аккорды и текст - chords & lyrics)


    305

    Print

    Видео «Assemble The Empire (Sparta)»

    Видео клипы к песне подбираются автоматически сайтом youtube. Возможны некоторые несоответствия клипов песне.

    ↑ Спрятать рекламу ↑






     
    
    
    Sparta
    Assemble the empire
    Tabbed by  mavrick45
    Mavrick_45@sugarray.com
    
    
    
    Part one
    G-----------------------------------------------------]
    D-----------------------------------------------------]    X8
    A-----------------------------------------------------]
    E---2---2---2h3p2---2---2---232---2---2---232---0-0-0-]
    
    
    Part two
    G------------------------------------]
    D---------------------------0---2----]
    A---000000000000000000---4-----------]
    E------------------------------------]
    
    
    Part three
    G--------------------------------]
    D--------------------------------]
    A---000000000000000000-----------]
    E------------------------3-3-3---]
    
    Part two
    
    Part four
    G--------------------------------------]
    D-------------------------------0-0-0--]
    A---000000000000000000---3-3-3---------]
    E--------------------------------------]
    
    Part one  X8
    Part two
    Part three
    Part two
    Part four
    
    
    Part five
    G----------------------------]
    D----------------------------]   X2
    A----------------------------]
    E---2---2222---2222---0-0-0--]
    
    Part one   X8
    
    End
    G--------]
    D--------]
    A--------]
    E---2-2--]
     

    Тональность:

    Это должно быть в ТОП-листе! - Топ-лист композиций



    Назад
    Рекомендуем посмотреть другие песни исполнителя «Sparta»:

    • Комменты Fb ()
    • Комменты ВК



    Добавить в Избранное Браузера
    Сохранить здесь Очистить


    x

    0


    +
    -

    +
    -

    -

    Авторизация





    Зарегистрироваться

    M

    Дата и время

    • 05:12:59
       

    Социальные ссылки


    Наши приложения

    • Muzbank App Play Market
    • Muzbank Amazon App