MUZBANK



A MOST COMPLETE BANK OF MUSIC INFORMATION

МУЗЫКАЛЬНО-ИНФОРМАЦИОННЫЙ БАНК







    SSparta • Assemble The Empire (аккорды и текст - chords & lyrics)


    212

    Print

    Видео «Assemble The Empire (Sparta)»

    Видео клипы к песне подбираются автоматически сайтом youtube. Возможны некоторые несоответствия клипов песне.

    ↑ Спрятать рекламу ↑






     
    
    
    standard tuning
    w/ Delay - slightly faster than triplet
    |-17----------|-------------|-------------|-------------|
    |-------------|-------------|-------------|-17-14-------|
    |-------------|-16----------|-14----------|-------------|
    |-------------|-------------|-------------|-------------|
    |-------------|-------------|-------------|-------------|
    |-------------|-------------|-------------|-------------|
    
    |-------------|-------------|-------------|-------------|
    |-------------|-------------|-------------|-------------|
    |-------------|-------------|-------------|-------------|
    |-11----------|-9-----------|-------------|-------------|
    |-------------|-------------|-9-----------|-7-----------|
    |-------------|-------------|-------------|-------------|
    
    
    * = w/ Delay - slightly slower than quaver
    |-17----------|-------------|-------------|-15--14------|
    |-------------|-------------|-------------|-*-------17--|
    |-------------|-16----------|-14----------|-------------|
    |-------------|-------------|-------------|-------------|
    |-------------|-------------|-------------|-------------|
    |-------------|-------------|-------------|-------------|
    wide vibrato 
    |-------------|-------------|-------------|-------------|
    |-------------|-------------|-------------|-------------|
    |-9h11--------|-------------|-------------|-------------|
    |-------------|-------------|-------------|-------------|
    |-------------|-------------|-------------|-------------|
    |-------------|-------------|-------------|-------------|
    
    
    Play bottom part 1st and 3rd times
    |---17--------|-------------|-------------|-15----------|
    |-----------17|-14----1414--|-14----1414--|-----14--17--|
    |-------1614--|-------------|-------------|-----14--16--|
    |-------------|-------------|-------------|-17----------|
    |-------------|-------------|-------------|-------------|
    |-------------|-------------|-------------|-------------|
    
    |-------------|-------------|-------------|-------------|
    |-------------|-------------|-------------|-------------|
    |-1111--1111br|-1111--1111br|-1111--1111br|-9---9---9---|
    |-------------|-------------|-------------|-------------|
    |-9-9---9-9br-|-9-9---9-9br-|-9-9---9-9br-|-7---7---7---|
    |-------------|-------------|-------------|-0---0---0---|
    
    					   1,3		  2		 4
    |-------------|-------------|-------------|-------------||-------------||-------------|-------------|
    |-------------|-------------|-------------|-------------||-------------||-------------|-------------|
    |-9---9-9-9-9-|-6---6-6-6-6-|-2---2-2-2-2-|-------------||-------------||-5---5-5-5-5-|-7---7-7-7-7-|
    |-11--11111111|-7---7-7-7-7-|-2---2-2-2-2-|-----0---2---||-------------||-5---5-5-5-5-|-7---7-7-7-7-|
    |-0---0-0-0-0-|-0---0-0-0-0-|-0---0-0-0-0-|-4-----------||-------------||-3---3-3-3-3-|-5---5-5-5-5-|
    |-------------|-------------|-------------|-------------||-3---3---3---||-------------|-------------|
    
    |-------------|-------------|-------------|-------------||-------------||-------------|-------------|
    |-------------|-------------|-------------|-----9-9-----||-------------||-------------|-------------|
    |-------------|-------------|-------------|---------9-9-||-------------||-5---5---5---|-7---7---7---|
    |-11--11111111|-9---9-9-9-9-|-7---7-7-7-7-|-7-7---------||-5---5---5---||-------------|-------------|
    |-0---0-0-0-0-|-0---0-0-0-0-|-0---0-0-0-0-|-------------||-------------||-3---3---3---|-5---5---5---|
    |-------------|-------------|-------------|-------------||(3)-(3)-(3)--||-------------|-------------|
    
    
    ad lib. variations
    |-------------|-------------|-------------|-2-----5-----||-2-----5-----|
    |---232---5---|---232---5---|---232---5---|-----5-------||---2---------|
    |-2-----2---2-|-2-----2---2-|-2-----2---2-|---------4--||-----4---5--|
    |-------------|-------------|-------------|-------------||-------------|
    |-------------|-------------|-------------|-------------||-------------|
    |-------------|-------------|-------------|-------------||-------------|
    
    |-------------|-------------|-------------|-------------||-------------|
    |-------------|-------------|-------------|-------------||-------------|
    |-1111--1111br|-1111--1111br|-1111--1111br|-9---9---9---||-9---9---9---|
    |-------------|-------------|-------------|-------------||-------------|
    |-9-9---9-9br-|-9-9---9-9br-|-9-9---9-9br-|-7---7---7---||-7---7---7---|
    |-------------|-------------|-------------|-0---0---0---||-0---0---0---|
    
    
    
    |-17----------|-------------|-------------|-------------|
    |-------------|-------------|-------------|-17-14-------|
    |-------------|-16----------|-14----------|-------------|
    |-------------|-------------|-------------|-------------|
    |-------------|-------------|-------------|-------------|
    |-------------|-------------|-------------|-------------|
    
    |-------------|-------------|-------------|-------------|
    |-------------|-------------|-------------|-------------|
    |-1111------11|-1111------11|-1111--------|-9---9---9---|
    |-------------|-------------|-------------|-------------|
    |-9-9-------99|-9-9-------99|-9-9---------|-7---7---7---|
    |-------------|-------------|-------------|-0---0---0---|
    
    
    * = w/ Delay - slightly slower than quaver
    |-17----------|-------------|-------------|-15--14------|
    |-------------|-------------|-------------|-*-------17--|
    |-------------|-16----------|-14----------|-------------|
    |-------------|-------------|-------------|-------------|
    |-------------|-------------|-------------|-------------|
    |-------------|-------------|-------------|-------------|
    
    |-------------|-------------|-------------|-------------|
    |-------------|-------------|-------------|-------------|
    |-1111------11|-1111------11|-1111--------|-9---9---9---|
    |-------------|-------------|-------------|-------------|
    |-9-9-------99|-9-9-------99|-9-9---------|-7---7---7---|
    |-------------|-------------|-------------|-0---0---0---|
    
    
    
    |-------------|-------------|-------------|-------------|
    |-------------|-------------|-------------|-------------|
    |-------------|-------------|-------------|-9---9---9---|
    |-4-4---4-4-4-|-4-4---4-4-4-|-4-4---4-4-4-|-------------|
    |-4-4---4-4-4-|-4-4---4-4-4-|-4-4---4-4-4-|-7---7---7---|
    |-2-2---0-2-0-|-2-2---0-2-0-|-2-2---0-2-0-|-------------|
    
    |-------------|-------------|-------------|-------------|
    |-------------|-------------|-------------|-------------|
    |-1111--1111br|-1111--1111br|-1111--1111br|-9---9---9---|
    |-------------|-------------|-------------|-------------|
    |-9-9---9-9br-|-9-9---9-9br-|-9-9---9-9br-|-7---7---7---|
    |-------------|-------------|-------------|-0---0---0---|
    
    
    
    |-------------|
    |-------------|
    |-------------|
    |-4-4---------|
    |-4-4---------|
    |-2-2---------|
    
    |-------------|
    |-------------|
    |-1111--------|
    |-------------|
    |-9-9---------|
    |-------------|
     

    Тональность:

    Это должно быть в ТОП-листе! - Топ-лист композиций



    Назад
    Рекомендуем посмотреть другие песни исполнителя «Sparta»:

    • Комменты Fb ()
    • Комменты ВК



    Добавить в Избранное Браузера
    Сохранить здесь Очистить


    x

    0


    +
    -

    +
    -

    -

    Авторизация





    Зарегистрироваться

    M

    Дата и время

    • 18:29:42
       

    Социальные ссылки


    Наши приложения

    • Muzbank App Play Market
    • Muzbank Amazon App