MUZBANK



A MOST COMPLETE BANK OF MUSIC INFORMATION

МУЗЫКАЛЬНО-ИНФОРМАЦИОННЫЙ БАНК







    SSparta • Red Alibi (аккорды и текст - chords & lyrics)


    241

    Print

    Видео «Red Alibi (Sparta)»

    Видео клипы к песне подбираются автоматически сайтом youtube. Возможны некоторые несоответствия клипов песне.

    ↑ Спрятать рекламу ↑






     
    
    
    Sparta-Red Alibi
    
     Intro/Chorus
    e|----------------------|----------------------|
    B|----------------------|----------------------|
    G|----------------------|----------------------|
    D|-4-4-xx-4-4-x44/7/4p0-|-4-4-xx-4-4-xx-77/999-|
    A|-----xx-----x---------|-----xx-----xx--------|
    E|-3-3-xx-3-3-x3--------|-5-5-xx-5-5-xx-55/777-|
    
     Octaves that go over the intro
    e|-----------------------|
    B|-----------------------|
    G|-9-7-14--16-18-21--44--|
    D|-----------------------|
    A|-7-5-12--14-16-19--33--|
    E|-----------------------|
    
     Verse gtr 1 
    e|---------------------------------|
    B|---------------------------------|
    G|---0---0---0---0---0---0---0--0--|
    D|--9-9-9-9-9-9-7-7-0-0-0-0-0--0-0-|
    A|-7---7---9---5---0---0---2--2----|
    E|---------------------------------|
                        
     Verse gtr 2       
    e|-0000000000000000----------------|
    B|-0000000000000000----------------|
    G|-7777777799999999 ---------------|
    D|-----------------777777777777777-|
    A|-----------------000000000000000-|
    E|---------------------------------|
    
     Pre-Chorus
    e|--------------|-----------|
    B|-----23-------|-----------|
    G|-----32-11/12-|-2-2-22-22-|
    D|-2-2-00---/---|-2-2-------|
    A|-2-2-----9/10-|-0-0-22-22-|
    E|-0-0-2--------|-----------|
    
     Middle  gtr 1 soft pt  Middle loud pt
    e|----------|----------|-0---------------|
    B|----------|----------|-0---------------|
    G|----------|----------|-7----11/12------|
    D|-44444444-|-22220000-|-7------/---7----|
    A|----------|----------|-------9/10-0----|
    E|----------|----------|-----------------|
                                    
     Middle gtr 2 soft pt   Middle loud pt
    e|-10------------------|-10---15/14-12---|
    B|-10------------------|-10---17/15-14---|
    G|---------------------|-----------------|
    D|---------------------|-----------------|
    A|---------------------|-----------------|
    E|---------------------|-----------------|
     

    Тональность:

    Это должно быть в ТОП-листе! - Топ-лист композиций



    Назад
    Рекомендуем посмотреть другие песни исполнителя «Sparta»:

    • Комменты Fb ()
    • Комменты ВК



    Добавить в Избранное Браузера
    Сохранить здесь Очистить


    x

    0


    +
    -

    +
    -

    -

    Авторизация





    Зарегистрироваться

    M

    Дата и время

    • 07:19:51
       

    Социальные ссылки


    Наши приложения

    • Muzbank App Play Market
    • Muzbank Amazon App