MUZBANK



A MOST COMPLETE BANK OF MUSIC INFORMATION

МУЗЫКАЛЬНО-ИНФОРМАЦИОННЫЙ БАНК







    SSparta • Rx Coup (аккорды и текст - chords & lyrics)


    250

    Print

    Видео «Rx Coup (Sparta)»

    Видео клипы к песне подбираются автоматически сайтом youtube. Возможны некоторые несоответствия клипов песне.

    ↑ Спрятать рекламу ↑






     
    
    
    Intro
    G2:
    e|-17----------------------------
    B|----19-20-17-------------------
    G|-------------18-14-16-14-16-14-
    D|-------------------------------
    A|-------------------------------
    D|-------------------------------
    
    Verse
    
    G1:
    e|---|----------------
    B|---|----------------
    G|-6-|-7--------------
    D|-0-|-0--7--5--4-5-4-
    A|-4-|-5--7--5--4-5-4-
    D|---|-0--7--5--4-5-4-
    
    G2:
    e|---|------14----
    B|---|---------15-
    G|---|-7----------   
    D|---|-X----------   
    A|---|-5----------   
    D|---|------------
    
    Chorus
    
    G1:
    e|------------
    B|------------
    G|-10--7------
    D|-10--7--0~~-
    A|-8---5--0~~-
    D|-8---5--0~~-
    
    G2:
    e|----------12-8-8-8-12-8-8-8-12-8-8-8-
    B|-------------------------------------
    G|-10--7-------------------------------
    D|-10--7--0----------------------------
    A|-8---5--0----------------------------
    D|-8---5--0----------------------------
    
    Break Down
    G2:
    e|-12-8-8-8-12-8-8-8-12-8-8-8-12-8-8-8-
    B|-------------------------------------
    G|-------------------------------------
    D|-------------------------------------
    A|-------------------------------------
    D|-------------------------------------
    
    G1:
    e|----------------------------------
    B|----------------------------------
    G|-------5---xx-9/11-xx-9/11-xx-97-
    D|-5--3--5-0-xx-X/X--xx-x/x--xx-XX-
    A|-5--3--3-0-xx-7/9--xx-7/9--xx-75-
    D|-5--3----0------------------------
    
    G2:
    e|------------------------------------
    B|------------------------------------
    G|-------5----------------------------
    D|-5--3--5-0--7-to-1.5-harmonic slide-
    A|-5--3--3-0--------------------------
    D|-5--3----0--------------------------
    
    Last Riff:
    e|--------------
    B|--------------
    G|-9--11-14--11-
    D|-X--X---X--X--
    A|-7--9--12--9--
    D|--------------
     

    Тональность:

    Это должно быть в ТОП-листе! - Топ-лист композиций



    Назад
    Рекомендуем посмотреть другие песни исполнителя «Sparta»:

    • Комменты Fb ()
    • Комменты ВК



    Добавить в Избранное Браузера
    Сохранить здесь Очистить


    x

    0


    +
    -

    +
    -

    -

    Авторизация





    Зарегистрироваться

    M

    Дата и время

    • 01:46:53
       

    Социальные ссылки


    Наши приложения

    • Muzbank App Play Market
    • Muzbank Amazon App