MUZBANK


МУЗЫКАЛЬНО-ИНФОРМАЦИОННЫЙ БАНК





SSparta • Vacant Skies (аккорды и текст - chords & lyrics)


316

Print

Видео «Vacant Skies (Sparta)»

Видео клипы к песне подбираются автоматически сайтом youtube. Возможны некоторые несоответствия клипов песне.

↑ Спрятать рекламу ↑





 


VERSE:	 GUITAR 1
e|------------------------------------------------------------------|
B|------------------------------------------------------------------|
G|----------------------------------------------9---9---------------|
D|-0-0--4---7/9-------------0-0--4---7/9---9-7----7-----------------|
A|--------5-----7-9-5--2-0---------5-----7--------------------------|
E|------------------------------------------------------------------|
	GUITAR 2

e|-----12-12-12-/-10-10-10------------------------------------------|
B|-----X--X--X--/-X--X--X-------------------------------------------|
G|-----9--9--9--/-7--7--7-------------------------------------------|
D|-----0--0--0--/-0--0--0-------------------------------------------|
A|-----0--0--0----0--0--0-------------------------------------------|
E|------------------------------------------------------------------|

CHORUS:GUITAR 1

e|----------12-------------------------------12---------------------|
B|----------10-------------------------------10---------------------|
G|--9/11-11-11-----9—-7/6—-9/11-11-11-------------------------------|
D|--X/X--X--X----------------X—-X/X—-X/X—-X—X-----------------------|
A|--7/9--9--9----------------7—-5/4—-7/9—-9—9-----------------------|
E|------------------------------------------------------------------|
	GUITAR 2

e|------------------------------------------------------------------|
B|------------------------------------------------------------------|
G|------------------------------------------------------------------|
D|--4-4-4/5-5-5-----------------------------------------------------|
A|--4-4-4/5-5-5-----------------------------------------------------|
E|--2-2-2/3-3-3-----------------------------------------------------|

VERSE2:GUITAR 1

e|------------------------------------------------------------------|
B|------------------------------------------------------------------|
G|----------------------------------------------9---9---------------|
D|-0-0--4---7/9-------------0-0--4---7/9---9-7----7-----------------|
A|--------5-----7-9-5--2-0---------5-----7--------------------------|
E|------------------------------------------------------------------|
	GUITAR 2

e|--------X—-10-X-10-X-10--14---------------------------------------|
B|--------X--X--X-X—-X-X---X----------------------------------------|
G|--------X--7--X-7—-X-7---11---------------------------------------|
D|--------X--0--X-0—-X-0---0----------------------------------------|
A|------------------------------------------------------------------|
E|------------------------------------------------------------------|






BRIDGE: GUITAR 1

e|--------------2---------------------------------------------------|
B|------3-----3---3-------------------------------------------------|
G|----2-----2-------------------------------------------------------|
D|--0----0----------------------------------------------------------|
A|------------------------------------------------------------------|
E|------------------------------------------------------------------|
	GUITAR 2

e|-14-14-14-19-14-17-14-17-14-17-14-17-14-15-14-15-14-15-14-15------|
B|------------------------------------------------------------------|
G|------------------------------------------------------------------|
D|------------------------------------------------------------------|
A|------------------------------------------------------------------|
E|------------------------------------------------------------------|

INTERLUDE: GUITAR 1

e|------------------------------------------------------------------|
B|------------------------------------------------------------------|
G|----------11-11---------11-B-11-----------------------------------|
D|----------X--X----------X--B-X------------------------------------|
A|--X-X-X-X-9--9--X-X-X-X-9--B-9------------------------------------|
E|------------------------------------------------------------------|
GUITAR 2

e|------------------------------------------------------------------|
B|------------------------------------------------------------------|
G|------------------------------------------------------------------|
D|--0------0—-0------0-0---0---0------0--0------0--0----------------|
A|--12-X-X-9--12-X-X-9-12--12--12-X-X-9--12-X-X-9--12---------------|
E|------------------------------------------------------------------|

INTERLUDE CNT:	GUITAR 1

e|------------------------------------------------------------------|
B|------------------------------------------------------------------|
G|--9-9-9--6-6--9-9-9-----------------------------------------------|
D|--X-X-X--X-X--X-X-X-----------------------------------------------|
A|--7-7-7--4-4--7-7-7-----------------------------------------------|
E|------------------------------------------------------------------|
GUITAR 2

e|------------------------------------------------------------------|
B|------------------------------------------------------------------|
G|------------------------------------------------------------------|
D|--0------0—-0------0-0---0---0------0--0------0—-0----------------|
A|--12-X-X-9--12-X-X-9-12--12--12-X-X-9--12-X-X-9--12---------------|
E|------------------------------------------------------------------|
 

Тональность:

Это должно быть в ТОП-листе! - Топ-лист композиций



Назад
Рекомендуем посмотреть другие песни исполнителя «Sparta»:

  • Комменты Fb ()
  • Комменты ВК



Добавить в Избранное Браузера
Сохранить здесь Очистить


x

0


+
-

+
-

-

Авторизация





Зарегистрироваться

M

Дата и время

  • 09:26:49
     

Социальные ссылки


Наши приложения

  • Muzbank App Play Market
  • Muzbank Amazon App