MUZBANK



A MOST COMPLETE BANK OF MUSIC INFORMATION

МУЗЫКАЛЬНО-ИНФОРМАЦИОННЫЙ БАНК







    SSpineshank • Synthetic (аккорды и текст - chords & lyrics)


    308

    Print

    Видео «Synthetic (Spineshank)»

    Видео клипы к песне подбираются автоматически сайтом youtube. Возможны некоторые несоответствия клипов песне.

    ↑ Спрятать рекламу ↑






     
    
    
    Song: Synthetic
    Artist: Spineshank
    Album: The Height of Callousness
    Tabbed by: Christian / silent_warrior_@hotmail.com
    
    / - Slide up
    
    Tuning: B F# B E G# C#
    
    
    Intro
    |-----------------------------------------------|
    |-----------------------------------------------|
    |-6-6-6-6-6-6-8-9-9-9-9-9-9-8---9-9-9-9-9-9-9-9-| x2
    |-6-6-6-6-6-6-8-9-9-9-9-9-9-8-7-9-9-9-9-9-9-9-9-|
    |-4-4-4-4-4-4-6-7-7-7-7-7-7-6-7-7-7-7-7-7-7-7-7-|
    |-4-4-4-4-4-4-6-7-7-7-7-7-7-6-7-7-7-7-7-7-7-7-7-|
    
    Verse - Bass only
    
    Chorus 1
    |-----------------------------|
    |-----------------------------|
    |-----------------------------| x4
    |-6-6-6-6-6-6-7--4-4-4--2-4-2-|
    |-6-6-6-6-6-6-7--4-4-4--2-4-2-|
    |-6-6-6-6-6-6-7--4-4-4--2-4-2-|
    
    Fill
    |--------------------------------------|
    |--------------------------------------|
    |-8-8-8-8-8-7-7-7-14-14-14-14-14-14-12-| x1
    |--------------------------------------|
    |-6-6-6-6-6-5-5-5-12-12-12-12-12-12-10-|
    |--------------------------------------|
    
    Chorus 2
    |-----------------------------------------------|
    |-----------------------------------------------|
    |-6-6-6-6-6-6-8-9-9-9-9-9-9-8---9-9-9-9-9-9-9-9-| x2
    |-6-6-6-6-6-6-8-9-9-9-9-9-9-8-7-9-9-9-9-9-9-9-9-|
    |-4-4-4-4-4-4-6-7-7-7-7-7-7-6-7-7-7-7-7-7-7-7-7-|
    |-4-4-4-4-4-4-6-7-7-7-7-7-7-6-7-7-7-7-7-7-7-7-7-|
    
    Verse - Bass only
    
    Chorus 1
    |-----------------------------|
    |-----------------------------|
    |-----------------------------| x4
    |-6-6-6-6-6-6-7--4-4-4--2-4-2-|
    |-6-6-6-6-6-6-7--4-4-4--2-4-2-|
    |-6-6-6-6-6-6-7--4-4-4--2-4-2-|
    
    Fill
    |--------------------------------------|
    |--------------------------------------|
    |-8-8-8-8-8-7-7-7-14-14-14-14-14-14-12-| x1
    |--------------------------------------|
    |-6-6-6-6-6-5-5-5-12-12-12-12-12-12-10-|
    |--------------------------------------|
    
    Chorus 2
    |-----------------------------------------------|
    |-----------------------------------------------|
    |-6-6-6-6-6-6-8-9-9-9-9-9-9-8---9-9-9-9-9-9-9-9-| x2
    |-6-6-6-6-6-6-8-9-9-9-9-9-9-8-7-9-9-9-9-9-9-9-9-|
    |-4-4-4-4-4-4-6-7-7-7-7-7-7-6-7-7-7-7-7-7-7-7-7-|
    |-4-4-4-4-4-4-6-7-7-7-7-7-7-6-7-7-7-7-7-7-7-7-7-|
    
    Fill
    |--------------------------------------|
    |--------------------------------------|
    |-8-8-8-8-8-7-7-7-14-14-14-14-14-14-12-| x1
    |--------------------------------------|
    |-6-6-6-6-6-5-5-5-12-12-12-12-12-12-10-|
    |--------------------------------------|
    
    Bridge
    |--------------------------|
    |--------------------------|
    |--------------------------| x4
    |-1--1--0--1/7-7-7-7-7-7-7-|
    |-1--1--0--1/7-7-7-7-7-7-7-|
    |-1--1--0--1/7-7-7-7-7-7-7-|
    
    
    Fill
    |--------------------------------------|
    |--------------------------------------|
    |-8-8-8-8-8-7-7-7-14-14-14-14-14-14-12-| x2
    |--------------------------------------|
    |-6-6-6-6-6-5-5-5-12-12-12-12-12-12-10-|
    |--------------------------------------|
    
    Chorus 2
    |-----------------------------------------------|
    |-----------------------------------------------|
    |-6-6-6-6-6-6-8-9-9-9-9-9-9-8---9-9-9-9-9-9-9-9-| x4
    |-6-6-6-6-6-6-8-9-9-9-9-9-9-8-7-9-9-9-9-9-9-9-9-|
    |-4-4-4-4-4-4-6-7-7-7-7-7-7-6-7-7-7-7-7-7-7-7-7-|
    |-4-4-4-4-4-4-6-7-7-7-7-7-7-6-7-7-7-7-7-7-7-7-7-|
    
    End
    |-----------------------------|     |-----------------------------|
    |-----------------------------|     |-----------------------------|
    |-6-6-6-6-6-6-7--4-4-4--2-4-2-| x3  |-6-6-6-6-6-6-7--4-4-4--4-2-4-| x1
    |-6-6-6-6-6-6-7--4-4-4--2-4-2-|     |-6-6-6-6-6-6-7--4-4-4--4-2-4-|
    |-6-6-6-6-6-6-7--4-4-4--2-4-2-|     |-6-6-6-6-6-6-7--4-4-4--4-2-4-|
     

    Тональность:

    Это должно быть в ТОП-листе! - Топ-лист композиций



    Назад
    Рекомендуем посмотреть другие песни исполнителя «Spineshank»:

    • Комменты Fb ()
    • Комменты ВК



    Добавить в Избранное Браузера
    Сохранить здесь Очистить


    x

    0


    +
    -

    +
    -

    -

    Авторизация





    Зарегистрироваться

    M

    Дата и время

    • 12:15:05
       

    Социальные ссылки


    Наши приложения

    • Muzbank App Play Market
    • Muzbank Amazon App