MUZBANK



A MOST COMPLETE BANK OF MUSIC INFORMATION

МУЗЫКАЛЬНО-ИНФОРМАЦИОННЫЙ БАНК







    SSr-71 • Another Night Alone (аккорды и текст - chords & lyrics)


    287

    Print

    Видео «Another Night Alone (Sr-71)»

    Видео клипы к песне подбираются автоматически сайтом youtube. Возможны некоторые несоответствия клипов песне.

    ↑ Спрятать рекламу ↑





     
    
    
    SR-71 - Another Night Alone
    Tabbed by Aridotcom@aol.com
    
    
    INTRO
    (standard tuning)
    e---x---x---x---x---------------------------------|
    b---x---x---x---x---------------------------------|
    g---8---10--12--10--------------------------------|
    d---x---x---x---x---------------------------------| x4
    a---6---8---10--8---------------------------------|
    E---x---x---x---x---------------------------------|
       x3  x5  x3  x5
    
    VERSE
    e---x---|
    b---x---|
    g---8---|
    d---8---|
    a---6---|
    E---x---|
       x4
    
    e---x---x---x--|
    b---x---x---x--|
    g---8---10--12-| x4
    d---x---x---x--|
    a---6---8---10-|
    E---x---x---x--|
      x3  x5  x3
    
    e---x---x-x----|
    b---x---x-x----|
    g---8---8-8----|
    d---8---8-8----|a couple of times
    a---6---6-6----|
    E---x---x-x----|
    
    Chorus is the same thing as intro
    
    sorry but i dont know i dont know the bridge.
     

    Тональность:

    Это должно быть в ТОП-листе! - Топ-лист композиций



    Назад
    Рекомендуем посмотреть другие песни исполнителя «Sr-71»:

    • Комменты Fb ()
    • Комменты ВК



    Добавить в Избранное Браузера
    Сохранить здесь Очистить


    x

    0


    +
    -

    +
    -

    -

    Авторизация





    Зарегистрироваться

    M

    Дата и время

    • 17:51:51
       

    Социальные ссылки


    Наши приложения

    • Muzbank App Play Market
    • Muzbank Amazon App