MUZBANK



A MOST COMPLETE BANK OF MUSIC INFORMATION

МУЗЫКАЛЬНО-ИНФОРМАЦИОННЫЙ БАНК







    SSr-71 • Truth (аккорды и текст - chords & lyrics)


    262

    Print

    Видео «Truth (Sr-71)»

    Видео клипы к песне подбираются автоматически сайтом youtube. Возможны некоторые несоответствия клипов песне.

    ↑ Спрятать рекламу ↑





     
    
    
    -----------------------------------------------------------------------------
    			        Truth - Sr-71
    -----------------------------------------------------------------------------
    Tabbed by: Pryftan
    Email: mmisbetterthenyou@hotmail.com
    
    Tuning: Drop D 1/2 step down
    
    That bridge is evil to figure out because the speed makes it sound different
    then it really is. Screwy.
    
    Intro/Verse
    Eb|----5----3----2---0-|
    Bb|---3----3-----------|
    Gb|-------------2---2--|
    Db|--0----0----0---0---|
    Ab|--------------------|
    Db|-0----0----0---0----|
    
    Chorus A
    Eb|-----------------------------------------|
    Bb|-----------------------------------------|
    Gb|-------12-14-14-14-14-14-15-14-14-12-14--|
    Db|--0-0--0--0--0--0--0--0--0--0--0--0--0---|
    Ab|--0-0------------------------------------|
    Db|--0-0------------------------------------|
    
    Eb|-----------------------------------------|
    Bb|-----------------------------------------|
    Gb|-----------------------------------------|
    Db|--0-0--12-14-14-14-14-14-15-14-14-14-12--|
    Ab|--0-0--0--0--0--0--0--0--0--0--0--0--0---|
    Db|--0-0------------------------------------|
    
    Chorus B - Listen for strumming pattern
    Eb|-----------|
    Bb|-----------|
    Gb|--------0--|
    Db|--9-----5--|
    Ab|--9-----5--|
    Db|--9-----5--|
    
    Chorus A
    
    Chorus C
    Eb|-----------|
    Bb|-----------|
    Gb|-----------|
    Db|--9-----8--|
    Ab|--9-----5--|
    Db|--9-----5--|
    
    Verse
    
    Bridge
    Eb|-------------------------------------------------------|
    Bb|-------------------------------------------------------|
    Gb|-------------------------------------------------------|
    Db|--0-0-2-3-0-2-3-2-3-5-3-0-2-3-0-0-2-3-2-0-2-3-10---11--|
    Ab|--0-0-2-3-0-2-3-2-3-5-3-0-2-3-0-0-2-3-2-0-2-3-10---11--|
    Db|--0-0-2-3-0-2-3-2-3-5-3-0-2-3-0-0-2-3-2-0-2-3-10---11--|
    
    All Chorus
     

    Тональность:

    Это должно быть в ТОП-листе! - Топ-лист композиций



    Назад
    Рекомендуем посмотреть другие песни исполнителя «Sr-71»:

    • Комменты Fb ()
    • Комменты ВК



    Добавить в Избранное Браузера
    Сохранить здесь Очистить


    x

    0


    +
    -

    +
    -

    -

    Авторизация





    Зарегистрироваться

    M

    Дата и время

    • 13:38:43
       

    Социальные ссылки


    Наши приложения

    • Muzbank App Play Market
    • Muzbank Amazon App