MUZBANK



A MOST COMPLETE BANK OF MUSIC INFORMATION

МУЗЫКАЛЬНО-ИНФОРМАЦИОННЫЙ БАНК







    SStaind • A Flat (аккорды и текст - chords & lyrics)


    435

    Print

    Видео «A Flat (Staind)»

    Видео клипы к песне подбираются автоматически сайтом youtube. Возможны некоторые несоответствия клипов песне.

    ↑ Спрятать рекламу ↑





     
    
    
    Band: Staind
    Song: A Flat
    Album: Dysfunction
    Tabbed by: w1crazymofo@bolt.com
    Tuning: Drop Db
    
    Intro
    Eb|---------------|
    Bb|---------------|
    Gb|--7----5----2--|
    Db|--0----0----0--|
    Ab|---------------|
    Db|---------------|
     
    Chorus 1
    Eb|------------------------------|
    Bb|------------------------------|
    Gb|--7-7-7-7----------------6----|
    Db|--7-7-7-7-5-3/5-xxxx-3/5-6-5--|
    Ab|--5-5-5-5-5-3/5-xxxx-3/5-4-5--|
    Db|----------5-3/5-xxxx-3/5---5--|
    
    Verse 
    Eb|-------|-------------|
    Bb|-------|-------------|
    Gb|-------|-------------|
    Db|--3h5--|-------------|
    Ab|--3h5--|--3-3-3-3/4--|
    Db|--3h5--|--5-5-5-5/6--|
             
    Chorus 2
    Eb|-------------------------------|
    Bb|-------------------------------|
    Gb|--7-7-7-7/8-----------6--------|
    Db|--7-7-7-7/8-xx-3/5-xx-6-5-xxx--|
    Ab|--5-5-5-5/6-xx-3/5-xx-4-5-xxx--|
    Db|------------xx-3/5-xx---5-xxx--|
     
    Bridge
    Eb|-------------------|
    Bb|-------------------|
    Gb|-------------------|
    Db|--------7-------5--|
    Ab|-----4--------3----|
    Db|--5---------3------|
    
    Eb|---------------------------------|
    Bb|---------------------------------|
    Gb|-----------------7/6-------------|
    Db|--5p3-5p3-5/6-xx-7/6-5-0-5/6-xx--|
    Ab|--5p3-5p3-5/6-xx-5/4-5-0-5/6-xx--|
    Db|--5p3-5p3-5/6-xx-----5-0-5/6-xx--|
     

    Тональность:

    Это должно быть в ТОП-листе! - Топ-лист композиций



    Назад
    Рекомендуем посмотреть другие песни исполнителя «Staind»:

    • Комменты Fb ()
    • Комменты ВК



    Добавить в Избранное Браузера
    Сохранить здесь Очистить


    x

    0


    +
    -

    +
    -

    -

    Авторизация





    Зарегистрироваться

    M

    Дата и время

    • 17:48:04
       

    Социальные ссылки


    Наши приложения

    • Muzbank App Play Market
    • Muzbank Amazon App