MUZBANK



A MOST COMPLETE BANK OF MUSIC INFORMATION

МУЗЫКАЛЬНО-ИНФОРМАЦИОННЫЙ БАНК







    SStaind • Raw (аккорды и текст - chords & lyrics)


    280

    Print

    Видео «Raw (Staind)»

    Видео клипы к песне подбираются автоматически сайтом youtube. Возможны некоторые несоответствия клипов песне.

    ↑ Спрятать рекламу ↑





     
    
    
    name: guitargod
    
    artist: Staind
    
    SongTitle: RAW
    
    Tabs:  
     THIS IS ONE OF STAINDS HEAVIEST COOLEST RIFFS ON THEIR CD!!!
     
      TUNING: Dropped D tuned down half of a step (The exact tone is
       Hard to get because Mike Mushok uses a Baritone guitar made to
       sound heavy and low.....and yes it is a six string.)
    
       INTRO:
       
     (strings d a and d are palm muted)
       Eb|-------------------------------0h1--|
       Bb|---------------------------0h1------|
       Gb|------------------------------------|
       Db|------0-0-----0-----0-0-0-----------|
       Ab|--0h1-0-0-0h1-0-0h1-0-0-0-----------|
       Db|--0h1-0-0-0h1-0-0h1-0-0-0-----------|
    
      VERSE:
    
                                    
       Eb|---------------------------------------------------|
       Bb|---------------------------------------------------|
       Gb|------------------------------0----0-------0----0--|
       Db|-----7---7-------7----7----------------------------|
       Ab|---------------------------------------------------|
       Db|---4---4---4---5----5---5---1----1---1---1---1-----|
    
     Chorus:(gtr 1) bend up 1 whole step
    
      
       Eb|--------|
       Bb|--9-----|
       Gb|--11----|
       Db|--------|
       Ab|--------|
       Db|--------|  
    
     Chorus:(gtr 2)
            
                        END:
       Eb|------------|----------|
       Bb|------------|----------|
       Gb|------------|----------| 
       Db|--5----6----|----3-----|
       Ab|--3----4----|----1-----|
       Db|--3----3----|----1-----| 
    
     Bridge Part 1: (palm muted)
    
       Eb|------------------|-----------------------|
       Bb|------------------|-----------------------|
       Gb|------------------|-----------------------|
       Db|---Play 3 Times---|---------Then----------|
       Ab|------------------|-----------------------|
       Db|--7-7-7-7-8-8-8-8-|12-11-11-12-11-11-12-12| 
       
          
       Eb|------------------------|
       Bb|------------------------|
       Gb|Right when it turn heavy|
       Db|------------------------|
       Ab|--12-11-11-12-11-11-12--|
       Db|--12-11-11-12-11-11-12--|
    
     BRIDGE PART 2 (Palm muted)
    
       Eb|---------------|---------------------------|
       Bb|---------------|---------------------------|
       Gb|--play 3 times-|----------Then-------------|
       Db|---------------|---------------------------|
       Ab|--7-7-8-7-7-8--|--12-11-11-12-11-11-12-12--|
       Db|--7-7-8-7-7-8--|--12-11-11-12-11-11-12-12--|
    
       THATS IT!!!!!!!! HAVE FUN!!!!
     

    Тональность:

    Это должно быть в ТОП-листе! - Топ-лист композиций



    Назад
    Рекомендуем посмотреть другие песни исполнителя «Staind»:

    • Комменты Fb ()
    • Комменты ВК



    Добавить в Избранное Браузера
    Сохранить здесь Очистить


    x

    0


    +
    -

    +
    -

    -

    Авторизация





    Зарегистрироваться

    M

    Дата и время

    • 12:15:20
       

    Социальные ссылки


    Наши приложения

    • Muzbank App Play Market
    • Muzbank Amazon App