MUZBANK



A MOST COMPLETE BANK OF MUSIC INFORMATION

МУЗЫКАЛЬНО-ИНФОРМАЦИОННЫЙ БАНК







    SStaind • So Far Away (ver 9) (аккорды и текст - chords & lyrics)


    835

    Print

    Видео «So Far Away (ver 9) (Staind)»

    Видео клипы к песне подбираются автоматически сайтом youtube. Возможны некоторые несоответствия клипов песне.

    ↑ Спрятать рекламу ↑





     
    
    
    Song: So Far Away
    Band: Staind
    Album: 14 Shades of Grey
    Tuning: E A D G B e
    Tabbed By: PYRo78387
    
    
    Intro and Rhythm
    e|-------------------------------|
    B|11--11--12--12--14--14---------|
    G|--11------11------11--13--11-10|
    D|-------------------------------|
    A|-------------------------------|
    E|-------------------------------|
    
    e|----------------------16-13----|
    B|11--11--12--12--14--14-----14--|
    G|--11------11------11-----------|
    D|-------------------------------|
    A|-------------------------------|
    E|-------------------------------|
    
    Chorus
    e|----------|
    B|----------|
    G|---7-----5|
    D|5--7--2--5|
    A|5--5--2--3|
    E|3-----0---|
    
    Bridge
    e|----------|
    B|----------|
    G|---7-----5|
    D|2--7--5--5|
    A|2--5--5--3|
    E|0-----3---|
     

    Тональность:

    Это должно быть в ТОП-листе! - Топ-лист композиций



    Назад
    Рекомендуем посмотреть другие песни исполнителя «Staind»:

    • Комменты Fb ()
    • Комменты ВК



    Добавить в Избранное Браузера
    Сохранить здесь Очистить


    x

    0


    +
    -

    +
    -

    -

    Авторизация





    Зарегистрироваться

    M

    Дата и время

    • 02:19:07
       

    Социальные ссылки


    Наши приложения

    • Muzbank App Play Market
    • Muzbank Amazon App