MUZBANK



A MOST COMPLETE BANK OF MUSIC INFORMATION

МУЗЫКАЛЬНО-ИНФОРМАЦИОННЫЙ БАНК







    SStaind • Spleen (аккорды и текст - chords & lyrics)


    331

    Print

    Видео «Spleen (Staind)»

    Видео клипы к песне подбираются автоматически сайтом youtube. Возможны некоторые несоответствия клипов песне.

    ↑ Спрятать рекламу ↑





     
    
    
    Artist: Staind
    Title: Spleen
    Album: Dysfunction
    Tabbed By: Chip
    Tuning:    Db  Ab   Db  Gb   Bb   Eb
    Same as: (C#)(G#)(C#)(F#)(A#)(D#)
    Staind is an awesome band. Enjoy them with these 100% correct tabs.
    
    Intro (w/ Distortion):
    Eb:-----------------------------------------
    Bb:-----------------------------------------
    Gb:-----------------------------------------   x4 ring out
    Db: 0h2 --5p7----0h2--6p5---0h2--5p7—5/4~45
    Ab: 0h2 --5p7----0h2--6p5---0h2--5p7—5/4~45
    Db: 0h2 --5p7----0h2--6p5---0h2--5p7—5/4~45
    
    Eb: --------------------------
    Bb: --------------------------
    Gb: --------------------------      x4
    Db: --------------------------
    Ab: 666 555 666 555 33 5
    Db: --------------------------
        ^---------P.M.----------^
    
    Verse:
    Eb: ---------------------------------
    Bb: ---------------------------------
    Gb: 8-7-8-7-5-7---8-7-8-7-10-9   x2
    Db: 8-7-8-7-5-7---8-7-8-7-10-9 
    Ab: 6-5-6-5-3-5---6-5-6-5- 8 -7
    Db: ---------------------------------
    
    Eb: --------------------------
    Bb: --------------------------
    Gb: --------------------------      x4
    Db: --------------------------
    Ab: 666 555 666 555 33 5
    Db: --------------------------
        ^---------P.M. ----------^
    
    Eb: --------------------------
    Bb: --------------------------
    Gb: 8-7-8-7-5-7---8-7-8-7-10-9   x2
    Db: 8-7-8-7-5-7---8-7-8-7-10-9 
    Ab: 6-5-6-5-3-5---6-5-6-5-8--7
    Db: --------------------------
    
    Eb: --------------------------
    Bb: --------------------------
    Gb: --------------------------      x4
    Db: --------------------------
    Ab: 666 555 666 555 33 5
    Db: --------------------------
        ^---------P.M. ----------^
    
    Eb: --------------------------
    Bb: --------------------------
    Gb: 8-7-8-7-5-7---8-7-8-7-10-9   x2
    Db: 8-7-8-7-5-7---8-7-8-7-10-9 
    Ab: 6-5-6-5-3-5---6-5-6-5-8--7
    Db: --------------------------
    
    Chorus:
    Eb: 
    Bb: ----------------------------------
    Gb: 2-2-2-2-8~-----------------7-5-8-5
    Db: 2-2-2-2—8~   x3    then    7-5-8-5    3x repeat all
    Ab: 0-0-0-0—6~-----------------5-3-6-3
    Db: ----------------------------------
    
    Brigde:
    Eb: --------------------------
    Bb: --------------------------
    Gb: --------------------------      x4
    Db: --------------------------
    Ab: 666 555 666 555 33 5
    Db: --------------------------
        ^---------P.M. ----------^
    
    Verse 2: Same as Verse 1
    
    Interlude:
    
    Eb: -------------------
    Bb: -------------------
    Gb: -------------------
    Db: -----------------3~~
    Ab  2h3-3~--x8 ------3~~
    Eb: -----------------3~~
    	            ^P.M^
    
    
    
    Kick in Distortion w/ Drums!
    Eb: ------------------------
    Bb: ------------------------
    Gb: ------------------------
    Db: -------------------- 3~~     x3
    Ab: 2h3-3-- 2h3-3--------3~~
    Eb: ---------------------3~~
                             ^P.M.^
    
    (Chorus)
    
    
    And that’s the end. This song rocks! It’s a good mosh song too!
    E-mail me and tell me what you think: Level10Access@aol.com.
    Out..
     

    Тональность:

    Это должно быть в ТОП-листе! - Топ-лист композиций



    Назад
    Рекомендуем посмотреть другие песни исполнителя «Staind»:

    • Комменты Fb ()
    • Комменты ВК



    Добавить в Избранное Браузера
    Сохранить здесь Очистить


    x

    0


    +
    -

    +
    -

    -

    Авторизация





    Зарегистрироваться

    M

    Дата и время

    • 15:55:50
       

    Социальные ссылки


    Наши приложения

    • Muzbank App Play Market
    • Muzbank Amazon App