MUZBANK



A MOST COMPLETE BANK OF MUSIC INFORMATION

МУЗЫКАЛЬНО-ИНФОРМАЦИОННЫЙ БАНК







    SStarting Line • Given A Chance (аккорды и текст - chords & lyrics)


    264

    Print

    Видео «Given A Chance (Starting Line)»

    Видео клипы к песне подбираются автоматически сайтом youtube. Возможны некоторые несоответствия клипов песне.

    ↑ Спрятать рекламу ↑





     
    
    
    tabbed by: tessa r
    email: nofxchick934@hotmail.com
    
    i went to their show last night!! they rocked! anyway,
    the other tab for this song was wrong so heres how you really play it. 
    
    standard tuning: eBGDAE
    ... : palm mute
    
    intro:
    e|-----------------------------------------------------------------|
    B|-----------------------------------------------------------------|
    G|--111111111111-999999-888888-666666-88888-44444-111111111-66666--|
    D|---x-x-x-x-x-x-xxxxxx-xxxxxx-xxxxxx-xxxxx-xxxxx-x-x-x-x-x-xxxxx--|
    A|---9-9-9-9-9-9-777777-666666-444444-66666-22222-9-9-9-9-9-44444--| x2
    E|-----------------------------------------------------------------|
    
    verse: PM
    part 1
    e|------------------|
    B|------------------|
    G|------------------|
    D|--2--666--2--444--|
    A|--2--666--2--444--| x2
    E|--0--444--0--222--|
           ...     ...
    
    part 2
    e|-----------------|
    B|-----------------|
    G|-----------------|
    D|--222--666--444--|
    A|--222--666--444--| x4?
    E|--000--444--222--|
        ...  ...  ...
    
    chorus:
    e|----------------------------------|
    B|----------------------------------|
    G|--44-4----44-4------------44-4----|
    D|--44-422-244-444-466-622-244-444--|
    A|--22-200-222-244-466-622-222-244--|
    E|------00-0----22-244-400-0----22--|
                       ... ... ... ...
    
    verse 2 is same as verse 1
    
    bridge is the same chords as part 2 of the verse repeated over and over
    
    end on B!
    
    there you go, enjoy! =)
     

    Тональность:

    Это должно быть в ТОП-листе! - Топ-лист композиций



    Назад
    Рекомендуем посмотреть другие песни исполнителя «Starting Line»:

    • Комменты Fb ()
    • Комменты ВК



    Добавить в Избранное Браузера
    Сохранить здесь Очистить


    x

    0


    +
    -

    +
    -

    -

    Авторизация





    Зарегистрироваться

    M

    Дата и время

    • 01:55:31
       

    Социальные ссылки


    Наши приложения

    • Muzbank App Play Market
    • Muzbank Amazon App