MUZBANK



A MOST COMPLETE BANK OF MUSIC INFORMATION

МУЗЫКАЛЬНО-ИНФОРМАЦИОННЫЙ БАНК







    SStarting Line • Make Yourself At Home (аккорды и текст - chords & lyrics)


    350

    Print

    Видео «Make Yourself At Home (Starting Line)»

    Видео клипы к песне подбираются автоматически сайтом youtube. Возможны некоторые несоответствия клипов песне.

    ↑ Спрятать рекламу ↑





     
    
    
    Make Yourself at Home
    The Starting Line
    Tabbed by Jake doofy88 ratter3131@aol.com
    
    This song is pretty simple dropped D-D A D G B e
    both guitars are dropped D
    This is the riff played in the verses
    
    |------------------------0-----------------|
    |--------9------9--------------------------|
    |------9------9-------9--------------------|
    |----7------7-------7----------00000000----|
    |--0------9--------------------00000000----| 
    |----------------9-------------00000000----|
    
    Chorus                                     so dont wait up ill/ be home soon
    |--------------------|                     ----------- switch ^chord
    |--------------------|                     ----------- 
    |--9-----9-----9-----|                     --9-------- play this for all 
    |--7-----7-----7-----|both guitars         --7--0----- parts like that
    |--9-----0-----7-----|                     --x--0-----
    |--0-----0-----------|                     --9--0-----
    
    When the riff verse is being played
    before the actual third verse a 
    second guitar is playing this
    (softly)
    
    Keep repeating
    e|--------7-5--|
    B|-10-9--------|
    
    Then When guitar one is playing the 
    third verse and startes to sing the 
    second guitar is palm muting these chords
    
    |---------|
    |---------|
    |---------|
    |-9-------|
    |-7----9--|
    |------9--|
    
    Bridge 3 times i think
    |---------------|
    |---------------|
    |-9--9--9-9-9---|
    |-7--7--7-9-9---|
    |-9--x--7-0-x---|
    |-0--9----0-7---|
    
    Fast Strum part
    (very end)
    |---------------------| 
    |---------------------|
    |-99999999---99999999-|
    |-77777777---77777777-|x3
    |-99999999---77777777-|
    |-00000000---00000000-|
    
    Lyrics
    Verse-
    Make it a note to take your pills she said ill 
    leave them on the table in the same brown bottle
    you know she said its good to have you home the 
    second that I smelt that scent of my own house i said it.
    
    Chorus-
    Send just one postcard home and call as often as you can to tell
    us how it goes let us know
    
    Verse-
    Make it a note to make a point he said thats good advice ill take
    it now ill start to use it you know
    
    Chorus-
    Sentences, long messages from me to you to let you know im  ok
    ill let you know im out making you proud so dont wait up ill be home soon
    im out of town for now yer what makes it home that ill come back to.
    
    Verse-
    Make it a note to take your time they begged take baby steps to everywhere
    and come home in one piece to us you know its so good to be home and know 
    that when i hit the road im think of you both i miss you
    
    Chorus-Send just one postcard home and call as often as you can to tell us 
    how it goes let use know im out making you proud so dont wait up ill be home soon
    im out of town for now yer what makes it home that ill come back to.
    
    Bridge-
    Thank you for everything!!!!
    
    End-
    im out making you proud so dont wait up ill be home soon
    im out of town for now yer what makes it home that ill come back to.
     

    Тональность:

    Это должно быть в ТОП-листе! - Топ-лист композиций



    Назад
    Рекомендуем посмотреть другие песни исполнителя «Starting Line»:

    • Комменты Fb ()
    • Комменты ВК



    Добавить в Избранное Браузера
    Сохранить здесь Очистить


    x

    0


    +
    -

    +
    -

    -

    Авторизация





    Зарегистрироваться

    M

    Дата и время

    • 00:12:41
       

    Социальные ссылки


    Наши приложения

    • Muzbank App Play Market
    • Muzbank Amazon App