MUZBANK



A MOST COMPLETE BANK OF MUSIC INFORMATION

МУЗЫКАЛЬНО-ИНФОРМАЦИОННЫЙ БАНК







    SStarting Line • The Best Of Me (аккорды и текст - chords & lyrics)


    218

    Print

    Видео «The Best Of Me (Starting Line)»

    Видео клипы к песне подбираются автоматически сайтом youtube. Возможны некоторые несоответствия клипов песне.

    ↑ Спрятать рекламу ↑






     
    
    
    Starting Line
    The Best Of Me
    Tunning: Standard
    
    Tabbed By: Dysfunctional03
    Palm Mule = .
    
    
    INTRO: Acoustic Guitar
    
    ----------------------------------------------
    ----------------------------------------------
    -9-9---9-9--9-9-9-----9-9--9-9-9-9-9--------
    -9-9---9-9--9-9-9-----9-9--9-9-9-9-9--4x----
    -7-7---0-0--0-0-0-----0-0--0-0-0-0-0--------
    -------0-0--0-0-0-----9-9--7-7-7-7-7--------
    
    -------------------
    -------------------
    -9-9---9-----------  End Intro on this
    -9-9---9-----------  
    -7-7---7-----------
    -------------------
    
    
    INTRO: Electric Guitar (Distortion) (Guitar 1)
    --------------------------------------------------------------
    --------------------------------------------------------------
    --13--16--11--9--4--9--9--9--9--6--4--9--9--8--8--9--8--9-----
    ---x---x---x--x--x--x--x--x--x--x--x--x--x--x--x--x--x--x-x2--
    --11--14---9--7--2--7--7--7--7--4--2--7--7--6--6--7--6--7-----
    --------------------------------------------------------------
    
    ---------------------
    ---------------------
    -9-9---9-------------  End Intro on this
    -9-9---9-------------
    -7-7---7-------------
    ---------------------
    
    Verse (Guitar 2)
    
    ----0--0--0--0--0--0--0--0--------- 
    ---0--0--0--0--0--0--0--0----------
    --9--9--8--8--6--6--4--4-----------
    -----------------------------------
    -----------------------------------
    -----------------------------------
    
    
    Verse 1 (Guitar 1)
    
    ------------------------------------------------------------
    ------------------------------------------------------------
    ------------------------------------------------------------
    -2-2-2--2-2-2--2-2-2--2-2-2--2-2-2--2-2-2--2-2-2--2-2-2-----
    -2-2-2--2-2-2--2-2-2--2-2-2--2-2-2--2-2-2--2-2-2--2-2-2-----
    -0-0-0--0-0-0--0-0-0--0-0-0--0-0-0--0-0-0--0-0-0--0-0-0-----
     . . .  . . .  . . .  . . .  . . .  . . .  . . .  . . .
    
    -------------------------------------------------------------
    -------------------------------------------------------------
    ------------------------------------------9-9--9-------------
    -9-9-9-9-9-9-9-9-9-9-9-9-9-9-9-9----------9-9--9-------------
    -9-9-9-9-9-9-9-9-9-9-9-9-9-9-9-9----------7-7--7-------------
    -7-7-7-7-7-7-7-7-7-7-7-7-7-7-7-7-----------------------------  
    
    ------------------------------------------------------------
    ------------------------------------------------------------
    ------------------------------------------------------------
    -2-2-2--2-2-2--2-2-2--2-2-2--2-2-2--2-2-2--2-2-2--2-2-2-----
    -2-2-2--2-2-2--2-2-2--2-2-2--2-2-2--2-2-2--2-2-2--2-2-2-----
    -0-0-0--0-0-0--0-0-0--0-0-0--0-0-0--0-0-0--0-0-0--0-0-0-----
     . . .  . . .  . . .  . . .  . . .  . . .  . . .  . . .
    
    -----------------------------
    -----------------------------
    -----------------------------
    -2-2-2--2-2-2--2-2-2--2-2-2--
    -2-2-2--2-2-2--2-2-2--2-2-2--
    -0-0-0--0-0-0--0-0-0--0-0-0--
     . . .  . . .  . . .  . . .  
    
    
    -------------------------------------------------------------
    -------------------------------------------------------------
    ------------------------------------------9-9--9-------------
    -9-9-9-9-9-9-9-9-9-9-9-9-9-9-9-9----------9-9--9-------------
    -9-9-9-9-9-9-9-9-9-9-9-9-9-9-9-9----------7-7--7-------------
    -7-7-7-7-7-7-7-7-7-7-7-7-7-7-7-7-----------------------------  
    
    -----------------------------
    -----------------------------
    -----------------------------
    -2-2-2--2-2-2--2-2-2--2-2-2--
    -2-2-2--2-2-2--2-2-2--2-2-2--
    -0-0-0--0-0-0--0-0-0--0-0-0--
     . . .  . . .  . . .  . . .  
    
    
    Pre - Chorus:                              
    
    --------------------------------------------------------------------------
    --------------------------------------------------------------------------
    --------------------------------------------------------------------------
    -4-4-4-4-4-4-4-4--7-7-7-7-7-7-7-7--4-4-4-4-4-4-4-4--777777777-------------
    -4-4-4-4-4-4-4-4--7-7-7-7-7-7-7-7--4-4-4-4-4-4-4-4--777777777-------------
    -2-2-2-2-2-2-2-2--5-5-5-5-5-5-5-5--2-2-2-2-2-2-2-2--555555555-------------
    
    
    Chorus:
    
    ----------------------------------------------------
    ----------------------------------------------------
    ------2-2--2-2-2--6-6-6--4-4-4----------------------
    -2-2--2-2--2-2-2--6-6-6--4-4-4----------------------
    -2-2--0-0--0-0-0--4-4-4--2-2-2----------------------
    -0-0------------------------------------------------
    
    -------------------------------------------------------------
    -------------------------------------------------------------
    ------------------------------------------9-9--9-------------
    -9-9-9-9-9-9-9-9-9-9-9-9-9-9-9-9----------9-9--9-------------
    -9-9-9-9-9-9-9-9-9-9-9-9-9-9-9-9----------7-7--7-------------
    -7-7-7-7-7-7-7-7-7-7-7-7-7-7-7-7-----------------------------
    
    Verse (Guitar 2)
    
    ----0--0--0--0--0--0--0--0--------- 
    ---0--0--0--0--0--0--0--0----------
    --9--9--8--8--6--6--4--4-----------
    -----------------------------------
    -----------------------------------
    ----------------------------------- 
    
    
    Verse 2 (Guitar 1)
    
    ------------------------------------------------------------
    ------------------------------------------------------------
    ------------------------------------------------------------
    -2-2-2--2-2-2--2-2-2--2-2-2--2-2-2--2-2-2--2-2-2--2-2-2-----
    -2-2-2--2-2-2--2-2-2--2-2-2--2-2-2--2-2-2--2-2-2--2-2-2-----
    -0-0-0--0-0-0--0-0-0--0-0-0--0-0-0--0-0-0--0-0-0--0-0-0-----
     . . .  . . .  . . .  . . .  . . .  . . .  . . .  . . .
    
    -------------------------------------------------------------
    -------------------------------------------------------------
    ------------------------------------------9-9--9-------------
    -9-9-9-9-9-9-9-9-9-9-9-9-9-9-9-9----------9-9--9-------------
    -9-9-9-9-9-9-9-9-9-9-9-9-9-9-9-9----------7-7--7-------------
    -7-7-7-7-7-7-7-7-7-7-7-7-7-7-7-7----------------------------- 
    
    -----------------------------
    -----------------------------
    -----------------------------
    -2-2-2--2-2-2--2-2-2--2-2-2--
    -2-2-2--2-2-2--2-2-2--2-2-2--
    -0-0-0--0-0-0--0-0-0--0-0-0--
     . . .  . . .  . . .  . . . 
    
    
    Pre - Chorus:                              
    
    --------------------------------------------------------------------------
    --------------------------------------------------------------------------
    --------------------------------------------------------------------------
    -4-4-4-4-4-4-4-4--7-7-7-7-7-7-7-7--4-4-4-4-4-4-4-4--777777777-------------
    -4-4-4-4-4-4-4-4--7-7-7-7-7-7-7-7--4-4-4-4-4-4-4-4--777777777-------------
    -2-2-2-2-2-2-2-2--5-5-5-5-5-5-5-5--2-2-2-2-2-2-2-2--555555555-------------
    
    
    Chorus:
    
    ----------------------------------------------------
    ----------------------------------------------------
    ------2-2--2-2-2--6-6-6--4-4-4----------------------
    -2-2--2-2--2-2-2--6-6-6--4-4-4----------------------
    -2-2--0-0--0-0-0--4-4-4--2-2-2----------------------
    -0-0------------------------------------------------
    
    -------------------------------------------------------------
    -------------------------------------------------------------
    ------------------------------------------9-9--9-------------
    -9-9-9-9-9-9-9-9-9-9-9-9-9-9-9-9----------9-9--9-------------
    -9-9-9-9-9-9-9-9-9-9-9-9-9-9-9-9----------7-7--7-------------
    -7-7-7-7-7-7-7-7-7-7-7-7-7-7-7-7-----------------------------
    
    Interlude
    
    --------------------------------------------------------------
    --------------------------------------------------------------
    --13--16--11--9--4--9--9--9--9--6--4--9--9--8--8--9--8--9-----
    ---x---x---x--x--x--x--x--x--x--x--x--x--x--x--x--x--x--x-x2--
    --11--14---9--7--2--7--7--7--7--4--2--7--7--6--6--7--6--7-----
    --------------------------------------------------------------
    
    ---------------------
    ---------------------
    -9-9---9-------------  End Interlude on this
    -9-9---9-------------
    -7-7---7-------------
    ---------------------
    
    
    Bridge (Guitar 1)
    
    ------------------------------------------------
    ------------------------------------------------
    -----4---------4---------4---------4------------
    ---2---2-----2---2-----2---2-----2----2---------
    -0---------0---------0---------0----------------
    ------------------------------------------------
    
    ------------------------------------------------
    ------------------------------------------------
    -----4---------4---------4--------4-------------
    ---2---4-----2---4-----2---4----2---4-----------
    -4---------4---------4--------4-----------------
    ------------------------------------------------
    
    Bridge  (Guitar 2)
    
    -0-------0------0-----0----------0-------
    ---4-------4------4-----4--------0-------
    -----4-------4------4-----4------4-------
    ---------------------------------2-------
    ---------------------------------0-------
    -----------------------------------------
    
    Chorus:
    
    ----------------------------------------------------
    ----------------------------------------------------
    ------2-2--2-2-2--6-6-6--4-4-4----------------------
    -2-2--2-2--2-2-2--6-6-6--4-4-4----------------------
    -2-2--0-0--0-0-0--4-4-4--2-2-2----------------------
    -0-0------------------------------------------------
    
    -------------------------------------------------------------
    -------------------------------------------------------------
    ------------------------------------------9-9--9-------------
    -9-9-9-9-9-9-9-9-9-9-9-9-9-9-9-9----------9-9--9-------------
    -9-9-9-9-9-9-9-9-9-9-9-9-9-9-9-9----------7-7--7-------------
    -7-7-7-7-7-7-7-7-7-7-7-7-7-7-7-7-----------------------------
    
    
    OUTRO: Electric Guitar (Clean)
    
    ----------------------------------------------
    ----------------------------------------------
    -9-9---9-9--9-9-9-----9-9--9-9-9-9-9----------
    -9-9---9-9--9-9-9-----9-9--9-9-9-9-9----------
    -7-7---0-0--0-0-0-----0-0--0-0-0-0-0----------
    -------0-0--0-0-0-----9-9--7-7-7-7-7----------
    
    -------------------
    -------------------
    -9-9---9-----------  End Outro on this
    -9-9---9-----------  
    -7-7---7-----------
    -------------------
     

    Тональность:

    Это должно быть в ТОП-листе! - Топ-лист композиций



    Назад
    Рекомендуем посмотреть другие песни исполнителя «Starting Line»:

    • Комменты Fb ()
    • Комменты ВК



    Добавить в Избранное Браузера
    Сохранить здесь Очистить


    x

    0


    +
    -

    +
    -

    -

    Авторизация





    Зарегистрироваться

    M

    Дата и время

    • 12:19:30
       

    Социальные ссылки


    Наши приложения

    • Muzbank App Play Market
    • Muzbank Amazon App