MUZBANK



A MOST COMPLETE BANK OF MUSIC INFORMATION

МУЗЫКАЛЬНО-ИНФОРМАЦИОННЫЙ БАНК







    SStatic X • Bled For Days (аккорды и текст - chords & lyrics)


    243

    Print

    Видео «Bled For Days (Static X)»

    Видео клипы к песне подбираются автоматически сайтом youtube. Возможны некоторые несоответствия клипов песне.

    ↑ Спрятать рекламу ↑






     
    
    
    Band:Static-X
    Song:Bled For Days
    Album:Wisconsin Death Trip
    
    
    tuning is drop c   (cgcfad)
    
    intro:         pre-verse
    D|----------|----------------|
    A|----------|----------------|
    F|----------|----------------|                          
    C|-2-2-0-5-2|-2-3--2-3--2-3-2|
    G|-2-2-0-5-2|-2-3--2-3--2-3-2|
    C|-2-2-0-5-2|-2-3--2-3--2-3-2|
    
    verse:
    D|----------------|
    A|----------------|
    F|----------------|
    C|-3-0---3-0---3-0|
    G|-3-0---3-0---3-0|
    C|-3-0---3-0---3-0|
    
    chorus:
    D|--------|
    A|--------|
    F|-4---5--|
    C|-2---3--|
    G|--------|
    C|--------|
    
    
    
    for questions or comments e-mail me at ktulu628@hotmail.com
     

    Тональность:

    Это должно быть в ТОП-листе! - Топ-лист композиций



    Назад
    Рекомендуем посмотреть другие песни исполнителя «Static X»:

    • Комменты Fb ()
    • Комменты ВК



    Добавить в Избранное Браузера
    Сохранить здесь Очистить


    x

    0


    +
    -

    +
    -

    -

    Авторизация





    Зарегистрироваться

    M

    Дата и время

    • 12:09:38
       

    Социальные ссылки


    Наши приложения

    • Muzbank App Play Market
    • Muzbank Amazon App