MUZBANK



A MOST COMPLETE BANK OF MUSIC INFORMATION

МУЗЫКАЛЬНО-ИНФОРМАЦИОННЫЙ БАНК







    SStatic X • Otsegolation (аккорды и текст - chords & lyrics)


    369

    Print

    Видео «Otsegolation (Static X)»

    Видео клипы к песне подбираются автоматически сайтом youtube. Возможны некоторые несоответствия клипов песне.

    ↑ Спрятать рекламу ↑






     
    
    
    -------------------------------------------------------------------------------
    			     Otsegolation - Static-X
    -------------------------------------------------------------------------------
    
    Tabbed by:chubbs721
    Email:chubbs721@hotmail.com
    
    Tuning: CGCfad
    
    
    |---|
    |---|
    |---|
    |-0-| 8X
    |-0-|
    |-0-|
    
    |----16-16-16-16-16-16-|
    |----20-20-20-20-20-20-|
    |----------------------|
    |-0--------------------| 4X
    |-0--------------------|
    |-0--------------------|
    
    |---------|
    |---------|
    |---------|
    |-0-0-02-| 32X (yes, i counted)
    |-0-0-02-|
    |-0-0-02-|
      x x x
    
    |----16-16-16-16-16-16-|
    |----20-20-20-20-20-20-|
    |----------------------|
    |-0--------------------| 4X
    |-0--------------------|
    |-0--------------------|
    
    |---------|
    |---------|
    |---------|
    |-0-0-02-| 16X
    |-0-0-02-|
    |-0-0-02-|
      x x x
    
    |---|
    |---|
    |---|
    |-0-|
    |-0-|
    |-0-|
    
    |----16-16-16-16-16-16-|
    |----20-20-20-20-20-20-|
    |----------------------|
    |-0--------------------| 4X
    |-0--------------------|
    |-0--------------------|
    
    -Bass&Drums-
    
    |---------|
    |---------|
    |---------|
    |-0-10-10-| 16X
    |-0-10-10-|
    |-0-10-10-|
    
    |----16-16-16-16-16-16-|
    |----20-20-20-20-20-20-|
    |----------------------|
    |-0--------------------| 4X
    |-0--------------------|
    |-0--------------------|
    
    |---------|
    |---------|
    |---------|
    |-0-10-10-| 48X
    |-0-10-10-|
    |-0-10-10-|
    
    |   slide down
    | x  Mute note
    
    ===============================================================================
     

    Тональность:

    Это должно быть в ТОП-листе! - Топ-лист композиций



    Назад
    Рекомендуем посмотреть другие песни исполнителя «Static X»:

    • Комменты Fb ()
    • Комменты ВК



    Добавить в Избранное Браузера
    Сохранить здесь Очистить


    x

    0


    +
    -

    +
    -

    -

    Авторизация





    Зарегистрироваться

    M

    Дата и время

    • 01:07:05
       

    Социальные ссылки


    Наши приложения

    • Muzbank App Play Market
    • Muzbank Amazon App