MUZBANK



A MOST COMPLETE BANK OF MUSIC INFORMATION

МУЗЫКАЛЬНО-ИНФОРМАЦИОННЫЙ БАНК







    SStatic X • Push It (аккорды и текст - chords & lyrics)


    271

    Print

    Видео «Push It (Static X)»

    Видео клипы к песне подбираются автоматически сайтом youtube. Возможны некоторые несоответствия клипов песне.

    ↑ Спрятать рекламу ↑






     
    
    
    Static-X
    Push It
    Tuning: Drop C (CGCFAD)
    This is the complete version for this great song, 
    i saw them at mexico city and i think this is 100% accurate.
    Tabbed by :  DaNieL MenDozA
    
    INTRO
                                                   x2
    D|-10---10-----10---10-----10---10-----10---10-----|
    A|--x----x------x----x------x----x------x----x-----|
    F|--8----8------8----8------8----8------8----8-----|
    C|-------------------------------------------------|
    G|-------------------------------------------------|
    C|-----0---0~~-----0---0~~-----0---0~~-----0---0~~-|
    
                                                      
    D|-------------------------------------------------|
    A|-------------------------------------------------|
    F|-------------------------------------------------|
    C|---------223-2223-223-2223-223-2223-223-2223~~---|
    G|---------223-2223-223-2223-223-2223-223-2223~~---|
    C|-10-2---223-2223-223-2223-223-2223-223-2223~~---|
    
    
    D|------------------------------10---10-------------|
    A|-------------------------------x----x-------------|
    F|-------------------------------8----8-------------|
    C|---223-2223-223-2223-223-2223---------------------|
    G|---223-2223-223-2223-223-2223---------------------|
    C|---223-2223-223-2223-223-2223-----0---0~~---------|
    
    VERSE
                                                      x2
    D|--------------------------------------------------|
    A|--------------------------------------------------|
    F|--------------------------------------------------|
    C|-223-2223-223-2223-223-2223-223-2223--------------|
    G|-223-2223-223-2223-223-2223-223-2223--------------|
    C|-223-2223-223-2223-223-2223-223-2223--------------|
    
    
    CHORUS
    
    D|--------------------------------------------------|
    A|--------------------------------------------------|
    F|--------------------------------------------------|
    C|-223-2223-223-2223-223-2223-223-2223--------------|
    G|-223-2223-223-2223-223-2223-223-2223--------------|
    C|-223-2223-223-2223-223-2223-223-2223--------------|
    
    D|--------------------------------------------------|
    A|--------------------------------------------------|
    F|--------------------------------------------------|
    C|-223-2223-223-2223-223-2223-3-223-223-------------|
    G|-223-2223-223-2223-223-2223-3-223-223-------------|
    C|-223-2223-223-2223-223-2223-3-223-223-------------|
    
    
    BRIDGE
                           
    D|-10---10-----10---10-----10---10-----10---10-----|
    A|--x----x------x----x------x----x------x----x-----|
    F|--8----8------8----8------8----8------8----8-----|
    C|-------------------------------------------------|
    G|-------------------------------------------------|
    C|-----0---0~~-----0---0~~-----0---0~~-----0---0~~-|
         i see it    i need it    i see it  i need it
    
    D|-----------)----------)---------)----------------|
    A|---------17)--------17)-------17)----------------|
    F|---------19---------19--------19-----------------|
    C|-223-2223---223-2223--223-2223--223-2223---------|
    G|-223-2223---223-2223--223-2223--223-2223---------|
    C|-223-2223---223-2223--223-2223--223-2223---------|
    
    D|--------------------------------------------------|
    A|--------------------------------------------------|
    F|--------------------------------------------------|
    C|-3~~~~~------------1~~~~~-------------------------|
    G|-3~~~~~------------1~~~~~-------------------------|
    C|-3~~~~~------------1~~~~~-------------------------|
    
    Any comments mail me at koby_brokenh@hotmail.com
     

    Тональность:

    Это должно быть в ТОП-листе! - Топ-лист композиций



    Назад
    Рекомендуем посмотреть другие песни исполнителя «Static X»:

    • Комменты Fb ()
    • Комменты ВК



    Добавить в Избранное Браузера
    Сохранить здесь Очистить


    x

    0


    +
    -

    +
    -

    -

    Авторизация





    Зарегистрироваться

    M

    Дата и время

    • 12:12:24
       

    Социальные ссылки


    Наши приложения

    • Muzbank App Play Market
    • Muzbank Amazon App