MUZBANK



A MOST COMPLETE BANK OF MUSIC INFORMATION

МУЗЫКАЛЬНО-ИНФОРМАЦИОННЫЙ БАНК







    SStatic X • Sweat Of The Bud (аккорды и текст - chords & lyrics)


    402

    Print

    Видео «Sweat Of The Bud (Static X)»

    Видео клипы к песне подбираются автоматически сайтом youtube. Возможны некоторые несоответствия клипов песне.

    ↑ Спрятать рекламу ↑






     
    
    Tuning: C F A# D# G C
    
    
    Segue from Stem...
    
    INTRO
                       x16
    |---------------------|
    |---------------------|
    |---------------------|
    |-2-2--2-2--2--2--2-2-|
    |-2-2--2-2--2--2--2-2-|
    |-0-0--0-0--0--0--0-0-|
      ...  ...  .  .  ...
    
    (*=Harmonic)                         x4
    |--------------------------------------|
    |--------------------------------------|
    |--------------------------------------|
    |--------------------------------------|
    |--------------------------------------|
    |-0--0--0-0-*2.75*-0--0--0-0-*2.5*-*2*-|
      .  .  ...        .  .  ...
    
                                         x4
    |--------------------------------------|
    |--------------------------------------|
    |--------------------------------------|
    |-2--2--2-2--------2--2--2-2-----------|
    |-2--2--2-2--------2--2--2-2-----------|
    |-0--0--0-0-*2.75*-0--0--0-0-*2.5*-*2*-|
      .  .  ...        .  .  ...
    
    
    VERSE
                                         x4
    |--------------------------------------|
    |--------------------------------------|
    |--------------------------------------|
    |-2--2--2-2--------2--2--2-2-----------|
    |-2--2--2-2--------2--2--2-2-----------|
    |-0--0--0-0-*2.75*-0--0--0-0-*2.5*-*2*-|
      .  .  ...        .  .  ...
    
    
    CHORUS
                        x8
    |---------------------|
    |---------------------|
    |---------------------|
    |-2-2--2-2--2--2--2-2-|
    |-2-2--2-2--2--2--2-2-|
    |-0-0--0-0--0--0--0-0-|
      ...  ...  .  .  ...
    
    
    VERSE 2
                                         x4
    |--------------------------------------|
    |--------------------------------------|
    |--------------------------------------|
    |-2--2--2-2--------2--2--2-2-----------|
    |-2--2--2-2--------2--2--2-2-----------|
    |-0--0--0-0-*2.75*-0--0--0-0-*2.5*-*2*-|
      .  .  ...        .  .  ...
    
                                         x4
    |--------------------------------------|
    |--------------------------------------|
    |--------------------------------------|
    |--------------------------------------|
    |--------------------------------------|
    |-0--0--0-0-*2.75*-0--0--0-0-*2.5*-*2*-|
      .  .  ...        .  .  ...
    
    
    CHORUS 2
                        x8
    |---------------------|
    |---------------------|
    |---------------------|
    |-2-2--2-2--2--2--2-2-|
    |-2-2--2-2--2--2--2-2-|
    |-0-0--0-0--0--0--0-0-|
      ...  ...  .  .  ...
    
    
    BRIDGE - Bass only
    
    
    INTERLUDE
                     x8
    |------------------|
    |------------------|
    |------------------|
    |-2--2--2------3---|
    |-2--2--2------3---|
    |-0--0--0--0-0-1-0-|
      .......
    
    
    CHORUS 3
                        x8
    |---------------------|
    |---------------------|
    |---------------------|
    |-2-2--2-2--2--2--2-2-|
    |-2-2--2-2--2--2--2-2-|
    |-0-0--0-0--0--0--0-0-|
      ...  ...  .  .  ...
    
    
    OUTRO
                                         x7
    |--------------------------------------|
    |--------------------------------------|
    |--------------------------------------|
    |-2--2--2-2--------2--2--2-2-----------|
    |-2--2--2-2--------2--2--2-2-----------|
    |-0--0--0-0-*2.75*-0--0--0-0-*2.5*-*2*-|
      .  .  ...        .  .  ...
    
    End on
    |------------------------------|
    |------------------------------|
    |------------------------------|
    |-2--2--2-2--------2--2--2-2-2-|
    |-2--2--2-2--------2--2--2-2-2-|
    |-0--0--0-0-*2.75*-0--0--0-0-0-|
      .  .  ...        .  .  .....
     

    Тональность:

    Это должно быть в ТОП-листе! - Топ-лист композиций



    Назад
    Рекомендуем посмотреть другие песни исполнителя «Static X»:

    • Комменты Fb ()
    • Комменты ВК



    Добавить в Избранное Браузера
    Сохранить здесь Очистить


    x

    0


    +
    -

    +
    -

    -

    Авторизация





    Зарегистрироваться

    M

    Дата и время

    • 23:34:27
       

    Социальные ссылки


    Наши приложения

    • Muzbank App Play Market
    • Muzbank Amazon App