MUZBANK


МУЗЫКАЛЬНО-ИНФОРМАЦИОННЫЙ БАНК





SStatic X • The Only (аккорды и текст - chords & lyrics)


459

Print

Видео «The Only (Static X)»

Видео клипы к песне подбираются автоматически сайтом youtube. Возможны некоторые несоответствия клипов песне.

↑ Спрятать рекламу ↑






 


Band: Static-X
Song: The Only
Tabber: Eggy331
Tuning: CGCFAD
Effects: Distortion (unless otherwise noted)

(x#) = play chord # times
 = Harmonic

Intro/Chorus
  Guitar 1
D|-------------------------------------------------------------------------|
A|-------------------------------------------------------------------------|
F|-------3--5-----14--------12-------10--------8------10-------------------|
C|-0--3--3--5------x-(x16)---x-(x16)--x-(x16)--x-(x8)--x-(x8)--------------|
G|-0--3--1--3--4--12--------10--------8--------6-------8-------------------|
C|-0--3--------------------------------------------------------------------|
 |                                                                         |
 |Guitar 2                                                                 |
D|-------------------------------------------------------------------------|
A|-------------------------------------------------------------------------|
F|-------------------------------------------------------------------------|
C|-0--3--8--10-----0---------3--------8--------1---------------------------|
G|-0--3--8--10-----0---------3--------8--------1---------------------------|
C|-0--3--8--10-11--0---------3--------8--------1--3------------------------|



Verse
  Guitar 1
D|-10----12----13----12----------------------------------------------------|
A|----10----10----10----10--(x4)-------------------------------------------|
F|-------------------------------------------------------------------------|
C|-------------------------------------------------------------------------|
G|-------------------------------------------------------------------------|
C|-------------------------------------------------------------------------|



Solo
  Guitar 1
D|------------------------------------------------(x16)(x16)(x16)-(x8)-(x8)|
A|-------------------------------------------------------------------------|
F|-7--10-9-5--10-9----------------------------------14---12---10----8---10-|
C|-x---x-x-x---x-x-8-7-8-10-12--10-12-14--12-14-15---x----x----x----x----x-|
G|-5---8-7-3---8-7-8-7-8-10-12--10-12-14--12-14-15--12---10----8----6----8-|
C|-----------------8-7-8-10-12--10-12-14--12-14-15-------------------------|
 |                                                                         |
 |Guitar 2                                                                 |
D|-------------------------------------------------------------------------|
A|-------------------------------------------------------------------------|
F|-------------------------------------------------------------------------|
C|-0------3-----8-----10--------0------3------1----------------------------|
G|-0------3-----8-----10--------0------3------1----------------------------|
C|-0------3-----8-----10--11----0------3------1--3-------------------------|



Bridge
  Guitars 1 & 2
D|--------------|--------------------------|-------------------------------|
A|-(First Time)-|--------------------------|-(Last Time)-------------------|
F|--------------|--------------------------|-------------------------------|
C|-3-2-2--3-2-2-|-3-2-2--3-2-2-------------|---3-2-2-00--------------------|
G|-3-2-2--3-2-2-|-3-2-2--3-2-2-------(x4)--|---3-2-2-00--------------------|
C|-3-2-2--3-2-2-|-3-2-2--3-2-2----------|---3-2-2-00--------------------|
                                                     ..


Order:
Chorus
Verse
Chorus
Verse
Chorus
Solo
Bridge
Chorus x 2
 

Тональность:

Это должно быть в ТОП-листе! - Топ-лист композиций



Назад
Рекомендуем посмотреть другие песни исполнителя «Static X»:

  • Комменты Fb ()
  • Комменты ВК



Добавить в Избранное Браузера
Сохранить здесь Очистить


x

0


+
-

+
-

-

Авторизация





Зарегистрироваться

M

Дата и время

  • 19:58:47
     

Социальные ссылки


Наши приложения

  • Muzbank App Play Market
  • Muzbank Amazon App