MUZBANK



A MOST COMPLETE BANK OF MUSIC INFORMATION

МУЗЫКАЛЬНО-ИНФОРМАЦИОННЫЙ БАНК







    SSteppenwolf • Magic Carpet Ride (аккорды и текст - chords & lyrics)


    327

    Print

    Видео «Magic Carpet Ride (Steppenwolf)»

    Видео клипы к песне подбираются автоматически сайтом youtube. Возможны некоторые несоответствия клипов песне.

    ↑ Спрятать рекламу ↑





     
    
    
    Magic Carpet Ride - Steppenwolf
    
       main riff           x2
    G|-----------------|---------------------------------|
    D|-----------------|---------/55-3h5p3-5-5-3h5p3-5---|
    A|55-3----55-3-----|---1--3-----5-----5---5-----5-5--|
    E|----3-3-----303--|3------------------------------3-|
    
      instrumental part riffs
    |------------|-----------|
    |------------|-----------|
    |77-5h7p5----|-7-7-7-5-5-|
    |--7-----70--|--------7--|
    
    
      2nd instrumental part   x2
    |--------------------------------33333333--------------------------|
    |55555555--------33333333----------------3333333311111111----------|
    |--------55555555--------33333333------------------------11111111--|
    |------------------------------------------------------------------|
    
    tabbed by Achilles (blue_sincere@hotmail.com)
     

    Тональность:

    Это должно быть в ТОП-листе! - Топ-лист композиций



    Назад
    Рекомендуем посмотреть другие песни исполнителя «Steppenwolf»:

    • Комменты Fb ()
    • Комменты ВК



    Добавить в Избранное Браузера
    Сохранить здесь Очистить


    x

    0


    +
    -

    +
    -

    -

    Авторизация





    Зарегистрироваться

    M

    Дата и время

    • 11:12:31
       

    Социальные ссылки


    Наши приложения

    • Muzbank App Play Market
    • Muzbank Amazon App