MUZBANK


МУЗЫКАЛЬНО-ИНФОРМАЦИОННЫЙ БАНК





SStewart Dave • Lily was here (аккорды и текст - chords & lyrics)


4341

Print

Видео «Lily was here (Stewart Dave)»

Видео клипы к песне подбираются автоматически сайтом youtube. Возможны некоторые несоответствия клипов песне.

↑ Спрятать рекламу ↑





 


From: "Daniel" 
      ------------------------------
      Lily was here Dave A. Stewart
      ------------------------------

Guitar Part

between each tact there is a saxophone part

e|-----------------|---------------------------|------10---------------|
b|--0--------------|--0------------------------|-----8---5-8~----------|
g|---0--2----------|---0--2--------------------|--8/9------------------|
d|-------2---------|-------2/4--5--4-2---------|-----------------------|
a|-----------------|---------------------------|-----------------------|
E|-----------------|---------------------------|-----------------------|


e|------10---5-7------|----15-15---14-------------|
b|-----8---5----------|--12-----------12----------|
g|--8/9---------------|---------------------------|
d|--------------------|---------------------------|
a|--------------------|---------------------------|
E|--------------------|---------------------------|


e|----15-15--14-14---12-12---10--11/12~----|
a|--12-------------------------------------|
g|-----------------------------------------|
d|-----------------------------------------|
a|-----------------------------------------|
E|-----------------------------------------|


b - bend string up
r - release string

this must be played quickly

e|-----12-12-12-12-12b14r---|---12-12-12-12-12b14r---|   =20
b|-----12-12-12-12-12b14r---|---12-12-12-12-12b14r---|=20
g|--12----------------------|------------------------|
d|--------------------------|------------------------|
a|--------------------------|------------------------|
E|--------------------------|------------------------|



Have fun
 

Тональность:

Это должно быть в ТОП-листе! - Топ-лист композиций



Назад

  • Комменты Fb ()
  • Комменты ВК



Добавить в Избранное Браузера
Сохранить здесь Очистить


x

0


+
-

+
-

-

Авторизация





Зарегистрироваться

M

Дата и время

  • 07:41:16
     

Социальные ссылки


Наши приложения

  • Muzbank App Play Market
  • Muzbank Amazon App