MUZBANK



A MOST COMPLETE BANK OF MUSIC INFORMATION

МУЗЫКАЛЬНО-ИНФОРМАЦИОННЫЙ БАНК







    SStone Sour • Monolith (аккорды и текст - chords & lyrics)


    329

    Print

    Видео «Monolith (Stone Sour)»

    Видео клипы к песне подбираются автоматически сайтом youtube. Возможны некоторые несоответствия клипов песне.

    ↑ Спрятать рекламу ↑





     
    
    
    Stone Sour - Monolith
    Album: Stone Sour
    Tuning: B,F#,B,E,G#,C
    Tabbed By: Dean K (projectwyze13@hotmail.com)
    
    Josh - Lead guitar
    Jim - Rhythm
    
    
    
    Riff A
    Josh (0:08)     (0:27)
    ----------------|------------------17----------|
    -----3----------|--------15--------------------|
    -2h3---3-2------|-/14h15----15-14^----14-14^---|
    ---------0------|------------------------------|
    ----------------|------------------------------|
    ----------------|------------------------------|
    
    Riff A
    Jim (0:20)
    -----------------|
    -----------------|
    -----------------|
    -----------------|
    -12-12--12-12----|
    -12-12--12-12----|
    
    Verse
    Josh & Jim (0:30)
    --------------------|---------------------|
    --------------------|---------------------|
    --------------------|---------------------|
    --------------------|-7-7-7-7-8-8-8-8-----|
    --------------------|-7-7-7-7-8-8-8-8-----|
    -7-7-7-7-8-8-8-8----|-7-7-7-7-8-8-8-8-----|
    PM -------------|     
    
    Chorus
    Jim (0:58)
    -------------------|
    -------------------|
    -------------------|
    -12-8-7-5--3---7---|
    -12-8-7-5--3---7---|
    -12-8-7-5--3---7---|
    
    Chorus  
    Josh (1:01)
    --------------------------|
    --------------------------|
    -7-10-12-14-14/1514-9----|
    -x--x--x--x--x/-x-x-x----|
    -5--8-10-12-12/1312-7----|
    --------------------------|
    
    Fill ( 16x )
    Josh & Jim (1:18)
    --------|
    --------|
    --------|
    -0-0-0--|
    -0-0-0--|
    -0-0-0--|
    PM ---|
    
    Verse
    Josh & Jim (1:30)
    --------------------|---------------------|
    --------------------|---------------------|
    --------------------|---------------------|
    --------------------|-7-7-7-7-8-8-8-8-----|
    --------------------|-7-7-7-7-8-8-8-8-----|
    -7-7-7-7-8-8-8-8----|-7-7-7-7-8-8-8-8-----|
    PM -------------|     
    
    Chorus
    Jim (1:53)
    -------------------|
    -------------------|
    -------------------|
    -12-8-7-5--3---7---|
    -12-8-7-5--3---7---|
    -12-8-7-5--3---7---|
    
    Chorus  
    Josh (2:00)
    --------------------------|
    --------------------------|
    -7-10-12-14-14/1514-9----|
    -x--x--x--x--x/-x-x-x----|
    -5--8-10-12-12/1312-7----|
    --------------------------|
    
    Fill ( 16x )
    Josh & Jim (2:16)
    --------|
    --------|
    --------|
    -0-0-0--|
    -0-0-0--|
    -0-0-0--|
    PM ---|
    
    Chorus
    Jim (2:51)
    -------------------|
    -------------------|
    -------------------|
    -12-8-7-5--3---7---|
    -12-8-7-5--3---7---|
    -12-8-7-5--3---7---|
    
    Chorus  
    Josh (2:57)
    --------------------------|
    --------------------------|
    -7-10-12-14-14/1514-9----|
    -x--x--x--x--x/-x-x-x----|
    -5--8-10-12-12/1312-7----|
    --------------------------|
    
    Ending
    Jim (3:14)
    -------------------------------------------------|
    -------------------------------------------------|
    -------------------------------------------------|
    -12-x-x-x-12-x-x-x-12-x-x-x-12-x-x-x-12--10-10---|
    -12-x-x-x-12-x-x-x-12-x-x-x-12-x-x-x-12--10-10---|
    -12-x-x-x-12-x-x-x-12-x-x-x-12-x-x-x-12--10-10---|
    
    Ending
    Josh (3:28)
    -------------------------------------------------------|
    -------------------------------------------------------|
    -9--9--10------9--9--10------9--9--10------9--9--10----|
    -x--x---x------x--x---x------x--x---x------x--x---x----|
    -7--7---8------7--7---8------7--7---8------7--7---8----|
    -------------------------------------------------------|
    
    Jim (3:38)	   Josh (Pick Scrapes)
    ------------------|------------------|
    ------------------|------------------|
    ------------------|------------------|
    ---12---------|------------------|
    ---12---------|------------------|
    ---12---------|-//////////--|
     

    Тональность:

    Это должно быть в ТОП-листе! - Топ-лист композиций



    Назад
    Рекомендуем посмотреть другие песни исполнителя «Stone Sour»:

    • Комменты Fb ()
    • Комменты ВК



    Добавить в Избранное Браузера
    Сохранить здесь Очистить


    x

    0


    +
    -

    +
    -

    -

    Авторизация





    Зарегистрироваться

    M

    Дата и время

    • 16:40:26
       

    Социальные ссылки


    Наши приложения

    • Muzbank App Play Market
    • Muzbank Amazon App