MUZBANK



A MOST COMPLETE BANK OF MUSIC INFORMATION

МУЗЫКАЛЬНО-ИНФОРМАЦИОННЫЙ БАНК







    SStone Sour • Orchids (аккорды и текст - chords & lyrics)


    323

    Print

    Видео «Orchids (Stone Sour)»

    Видео клипы к песне подбираются автоматически сайтом youtube. Возможны некоторые несоответствия клипов песне.

    ↑ Спрятать рекламу ↑






     
    
    
    Tabbed by dolman (ddlinares@hotmail.com)
    
    Tuning: c# 
            g# 
    	e
    	b
    	F#
    	B
    
    
    LEGEND: 
            slide down =  
            slide up   = / 
            hammer     = h 
            PM         = Palm Mute
            TP         = Tremolo Picking  
    
    
         		         		         2X	       
    ||-------------------------------------------------||
    ||-------------------------------------------------||
    ||-------------------------------------------------||
    ||-------------------------------------------------||
    ||--55-5^6--5---55-5^8--6---55-5^6--5--5---5-5^8-6-||
    ||-0-----------0-----------0------------0-5--------||
                                                            
                3X 	            1X	
    ||-------------||--------------||
    ||-------------||--------------||
    ||-------------||--------------||     (3X)
    ||-00000--0-00-||-00000--1h0-0-||
    ||-00000--0-00-||-00000--------||
    ||-00000--0-00-||-00000--------||
     PM.................... 
    
    
                           3X                          1X    
    ||----------------------||--------------------------||
    ||----------------------||--------------------------||
    ||----------------------||--------------------------||
    ||----------------------||--------------------------||  
    ||-5--3--6-6/8--5--3--6-||-5--3--6-6/8--5--3--6--/-||
    ||----------------------||--------------------------||
     TP.............................................
     
    
                     3X               1X  
    ||----------------||----------------||
    ||----------------||----------------||
    ||----------------||----------------|| (2X)
    ||-0--00-1--0-6-5-||-3---33---3-333-||
    ||-0--00-1--0-6-5-||-3---33---3-333-||
    ||-0--00-1--0-6-5-||-3---33---3-333-||
    
    
    
                      2X
    ||-----------------||
    ||-----------------||
    ||-----------------||
    ||-0--000-0-000000-||
    ||-0--000-0-000000-||
    ||-0--000-0-000000-||
     PM...............  
    
    
                3X 	            1X	
    ||-------------||--------------||
    ||-------------||--------------||
    ||-------------||--------------||     (2X)
    ||-00000--0-00-||-00000--1h0-0-||
    ||-00000--0-00-||-00000--------||
    ||-00000--0-00-||-00000--------||
     PM.................... 
    
    
                         3X                          1X    
    ||----------------------||--------------------------||
    ||----------------------||--------------------------||
    ||----------------------||--------------------------||
    ||----------------------||--------------------------||  
    ||-5--3--6-6/8--5--3--6-||-5--3--6-6/8--5--3--6--/-||
    ||----------------------||--------------------------||
    TP.............................................
    
     
                     3X               1X  
    ||----------------||----------------||
    ||----------------||----------------||
    ||----------------||----------------|| (2X)
    ||-0--00-1--0-6-5-||-3---33---3-333-||
    ||-0--00-1--0-6-5-||-3---33---3-333-||
    ||-0--00-1--0-6-5-||-3---33---3-333-||
    
    
    
                                                      1X 
    ||-------------------------------------------------||
    ||-------------------------------------------------||
    ||-------------------------------------------------||
    ||-0-----------------------0-----------------------||
    ||-0-----------------------0-----------------------||
    ||-0-----------------------0-----------------------||
    ||                                                 ||
    ||                                                 ||
    ||-------------------------------------------------||
    ||-------------------------------------------------||
    ||-------------------------------------------------||
    ||-------------------------------------------------||
    ||--55-5^6--5---55-5^8--6---55-5^6--5--5---5-5^8-6-||
    ||-0-----------0-----------0------------0-5--------||
    
    
                                                     1X 
    ||-16^17-------------------------------------------||
    ||-------------------------------------------------||
    ||-------------------------------------------------||
    ||-------------------------------------------------||
    ||-------------------------------------------------||
    ||-------------------------------------------------||
    ||                                                 ||
    ||                                                 ||
    ||-------------------------------------------------||
    ||-------------------------------------------------||
    ||-------------------------------------------------||
    ||-------------------------------------------------||
    ||--55-5^6--5---55-5^8--6---55-5^6--5--5---5-5^8-6-||
    ||-0-----------0-----------0------------0-5--------||
    
                                                              1X  
    ||---------------------------------- ~~ --------------------||
    ||-3-4-3----4-6-4---3-4-3----3-6-4-- ~~ ----3-4-3-----4-6-4-||
    ||--------------------------2------- ~~ ---2----------------||
    ||-------------------------0-------- ~~ --0-----------------||
    ||---------------------------------- ~~ --------------------||
    ||---------------------------------- ~~ --------------------||
                                                                       
    		
                  3X              1X
    ||-------------||--------------||
    ||-------------||--------------||
    ||-------------||--------------||   (4X)
    ||-00000--0-00-||-00000--1h0-0-||  
    ||-00000--0-00-||-00000--------||
    ||-00000--0-00-||-00000--------||
     PM...........  PM.....        
    
    
                          3X                          1X    
    ||----------------------||--------------------------||
    ||----------------------||--------------------------||
    ||----------------------||--------------------------||
    ||----------------------||--------------------------||  
    ||-5--3--6-6/8--5--3--6-||-5--3--6-6/8--5--3--6--/-||
    ||----------------------||--------------------------||
     TP.............................................
    
    
      3X               1X  
    ||----------------||----------------||
    ||----------------||----------------||
    ||----------------||----------------|| (2X)
    ||-0--00-1--0-6-5-||-3---33---3-333-||
    ||-0--00-1--0-6-5-||-3---33---3-333-||
    ||-0--00-1--0-6-5-||-3---33---3-333-||
    
                                                                          
       w/riff01                                                  1X
    ||-------------------------------------------------------------||
    ||-3-4-3--4-6-4--3-4-3----3-6-4--3-4-2---3-6-4----3-4-3----6-4-||
    ||-----------------------2--------------2--------2--------2----||
    ||----------------------0--------------0--------0--------0-----||
    ||-------------------------------------------------------------||
    ||-------------------------------------------------------------||
    
               riff01 8X
    ||-----------------||
    ||-----------------||
    ||-----------------||
    ||-0--000-0-000000-||
    ||-0--000-0-000000-||
    ||-0--000-0-000000-||
     PM...............
     

    Тональность:

    Это должно быть в ТОП-листе! - Топ-лист композиций



    Назад
    Рекомендуем посмотреть другие песни исполнителя «Stone Sour»:

    • Комменты Fb ()
    • Комменты ВК



    Добавить в Избранное Браузера
    Сохранить здесь Очистить


    x

    0


    +
    -

    +
    -

    -

    Авторизация





    Зарегистрироваться

    M

    Дата и время

    • 04:59:27
       

    Социальные ссылки


    Наши приложения

    • Muzbank App Play Market
    • Muzbank Amazon App