MUZBANK



A MOST COMPLETE BANK OF MUSIC INFORMATION

МУЗЫКАЛЬНО-ИНФОРМАЦИОННЫЙ БАНК







    SStone Temple Pilots • Creep (аккорды и текст - chords & lyrics)


    535

    Print

    Видео «Creep (Stone Temple Pilots)»

    Видео клипы к песне подбираются автоматически сайтом youtube. Возможны некоторые несоответствия клипов песне.

    ↑ Спрятать рекламу ↑





     
    
    
    song:creep
    recorded by:stone temple pilots
    album:CORE
    tab by:Kc
    
    intro:(guitar I)
    E|------------------2--0--||--0------------0----|
    B|--------1-------0----0--||--0------------0----|
    G|------0-------2------0--||--0------------0----|
    D|----2-------1--------2--||--2------------2----|
    A|--3-------2----------2--||--2------------2----|
    E|---------------------0--||--0------------0----|
          (guitar II)
    E|------------------1--3--||--3-----------------|
    B|--------1-------0----3--||--3-----------------|
    G|------0-------2------0--||--0-----------------|
    D|----2-------1--------2--||--2-----------------|
    A|--3-------2----------2--||--2-----------------|
    E|---------------------0--||--0-----------------|
    
    riff I(guitar II)
    E|--------------------|-------------------------|
    B|------3--------3----|------3-------0----------|
    G|----0---0---0----0--|----0---0---0----0-------|
    D|--2-------2---------|--2-------4--------------|
    A|--------------------|-------------------------|
    E|--------------------|-------------------------|
    
     refrain......take the time with a wounded hand cause it likes to heal
    E|--3--3--3--0--0--0----0-----------------------|
    B|--3--3--3--1--1--1----3-----------------------|
    G|--0--0--0--2--2--2----0-----------------------|
    D|--0--0--0--2--2--2----2-----------------------|
    A|-----------0--0--0----2-----------------------|
    E|--3--3--3-------------0-----------------------|
    
    riff II(guitar II)
    E|---------------------------|--0---------------|
    B|------3-------0-----3-0----|--3---------------|
    G|----0---0---0-----------0--|--0---------------|
    D|--2-------4-----4/5--------|--2---------------|
    A|---------------------------|------------------|
    E|---------------------------|------------------|
    
    E|--------0--------|
    B|------3---3------|
    G|----0---------0--|
    D|--4---------4----|
    A|-----------------|
    E|-----------------|
    repeat refrain       
    
    chorus
    E|----------------------------------------------------------------|
    B|----------------------------------------------------------------|
    G|----------------------------------------------------------------|
    D|------0-------0-------0-2------0-------0-------0-----0----------|
    A|----2-------0-----0-2--------2-------0-------3-----2-----0-1-2--|
    E|--0-----0-2-----3----------0-----0-2-----2-3-----3-----3--------|
    
    E|----------------------------------|
    B|----------------------------------|
    G|----------------------------------|
    D|--------------0-2-----------------|
    A|----------0-2--------------0-1-2--|
    E|--0-2-3-3----------0-2-3-3--------|
    
    E|----0------0--0---------0-0-----0--|
    B|--3---3----3--3---------3---3---3--|
    G|--------0--0--0----0----0-----0-0--|
    D|-----------2--2--4---4--2-------2--|
    A|-----------2--2---------2-------2--|
    E|-----------0--0---------0-------0--|
    
    coda:..half the man I use to be
    E|---------------------------------------|-------|
    B|---------------------------------------|-------|
    G|---------------------------------------|-------|
    D|------0-------0-------0-----0----------|-------|
    A|----2-------0-------2-----2-----0-1-2--|--(2)--|
    E|--0-----0-2-----2-3-----3-----3--------|-------|
                                                         _ _ _
    E|-----------------|-------|                   |  / |
    B|-----------------|-------|                   | /  |
    G|-----------------|-------|   end  tabbed by: |/   |
    D|-----------------|-------|                   |   |
    A|----------0-1-2--|--(2)--|                   |   |
    E|--0-2-3-3--------|-------|                   |   |_ _ _
     

    Тональность:

    Это должно быть в ТОП-листе! - Топ-лист композиций



    Назад
    Рекомендуем посмотреть другие песни исполнителя «Stone Temple Pilots»:

    • Комменты Fb ()
    • Комменты ВК



    Добавить в Избранное Браузера
    Сохранить здесь Очистить


    x

    0


    +
    -

    +
    -

    -

    Авторизация





    Зарегистрироваться

    M

    Дата и время

    • 13:39:18
       

    Социальные ссылки


    Наши приложения

    • Muzbank App Play Market
    • Muzbank Amazon App