MUZBANK



A MOST COMPLETE BANK OF MUSIC INFORMATION

МУЗЫКАЛЬНО-ИНФОРМАЦИОННЫЙ БАНК







    SStone Temple Pilots • Interstate Love Song (аккорды и текст - chords & lyrics)


    379

    Print

    Видео «Interstate Love Song (Stone Temple Pilots)»

    Видео клипы к песне подбираются автоматически сайтом youtube. Возможны некоторые несоответствия клипов песне.

    ↑ Спрятать рекламу ↑






     
    
    
    band: stone temple pilots
    song: interstate love song
    album: purple
    
    intro chords and chorus
    e-4----0----0----4----4----5--0~--
    b-5----0----0----4----4----5--0~--
    g-6----1----2----6----5----6--1~--
    d-6----2----2----6----6----7--2~--
    a-4----2----0----4----6----7--2~--
    e------0---------4----4----5--0~--
    
    the lead guitar part that goes over this
    g-----------------------------------------------------
    d-11~---11-9-11-9--------------10-12-141311-11-9----
    a-----------------11-97--9-11---------------------7--
    e-----------------------------------------------------
    
    main riff
    e-0---0-0----0--------0----000-00-0--000000-0000-0--
    b-2/3-2-0------0--------0--000-00-0--000000-0000-0--
    g----------2-----1/2-------111-22-1--111111-1122-1--
    d--------------------------222-22-2--222222-2222-2--
    a--------------------------222-22-2--222222-2222-2--
    e--------------------------000-00-0--000000-0000-0--
    
    verse (you can fugure out the rythym)
    e-4--4--0--0--0~-000-00-0-000000-0000-0--
    b-5--4--2--2--0~-000-00-0-000000-0000-0--
    g-6--5--1--1--2~-111-22-1-111111-1122-1--
    d-6--6--3--2--2~-222-22-2-222222-2222-2--
    a-4--6--2--1--0~-222-22-2-222222-2222-2--
    e----4-----------000-00-0-000000-0000-0--
    
    then the chorus is the same chords as the intro
    
    tab legend
    =slide down
    /=slide up
     

    Тональность:

    Это должно быть в ТОП-листе! - Топ-лист композиций



    Назад
    Рекомендуем посмотреть другие песни исполнителя «Stone Temple Pilots»:

    • Комменты Fb ()
    • Комменты ВК



    Добавить в Избранное Браузера
    Сохранить здесь Очистить


    x

    0


    +
    -

    +
    -

    -

    Авторизация





    Зарегистрироваться

    M

    Дата и время

    • 05:54:12
       

    Социальные ссылки


    Наши приложения

    • Muzbank App Play Market
    • Muzbank Amazon App