MUZBANK



A MOST COMPLETE BANK OF MUSIC INFORMATION

МУЗЫКАЛЬНО-ИНФОРМАЦИОННЫЙ БАНК







    SStone Temple Pilots • Piece Of Pie (аккорды и текст - chords & lyrics)


    275

    Print

    Видео «Piece Of Pie (Stone Temple Pilots)»

    Видео клипы к песне подбираются автоматически сайтом youtube. Возможны некоторые несоответствия клипов песне.

    ↑ Спрятать рекламу ↑





     
    
    
    Song: Piece Of Pie
    Band: Stone Temple Pilots
    Album: Core
    tabbed by: Jason (sellycell@hotmail.com)
    
    Dropped D tuning
    
    Intro
    G|----------------|
    D|----------------|
    A|----------------|
    D|--5-3-0-2-3-5-0-|
    
    Verse
    G|--------------------------------|
    D|--------------------------------|
    A|--------------------------------|
    D|--5-3-0-3-0-0-5-3-0-3-0-0-0-0-0-|
    
    Pre-Chorus
    G|----------------------------------------|
    D|----------------------------------------|
    A|----------------------------------------|
    D|--5-3-0-2-3---5-3-0-2-3---5-3-0-2-3-2-0-|
    
    Chorus
    G|-------------------------------------------------|
    D|-------------------------------------3-4-0-0-----|
    A|---------3h5------0-2-3-2--------3h5---------3h5-|
    D|--0--0-0------0-0----------5-3-0-----------------|
    
    Bridge/Ending
    G|-----------------------------------------------------------------|
    D|-----------------------------------------------------------------|
    A|-8-8-8-8-8-8-8-8-7-7-7-7-7-7-7-7-6-6-6-6-6-6-6-6-5-5-5-5-5-5-5-5-|
    D|-----------------------------------------------------------------|
    
    Bridge/Ending cont.
    G|------------------------------|
    D|------------------------------|
    A|-1----1-1----1-1----1--3-3--5-|
    D|----3------3------3---------0-|
    
    Pretty straight forward. This is fairly accurate, maybe not exactly
    what Deleo plays on the disc, but damn close. Listen to the song to
    put everything together.
     

    Тональность:

    Это должно быть в ТОП-листе! - Топ-лист композиций



    Назад
    Рекомендуем посмотреть другие песни исполнителя «Stone Temple Pilots»:

    • Комменты Fb ()
    • Комменты ВК



    Добавить в Избранное Браузера
    Сохранить здесь Очистить


    x

    0


    +
    -

    +
    -

    -

    Авторизация





    Зарегистрироваться

    M

    Дата и время

    • 05:24:33
       

    Социальные ссылки


    Наши приложения

    • Muzbank App Play Market
    • Muzbank Amazon App
    • Muzbank Bitcoin13igjuWJj2R4cHiyZqP7Q3ggVvfXE9j82Q