MUZBANK



A MOST COMPLETE BANK OF MUSIC INFORMATION

МУЗЫКАЛЬНО-ИНФОРМАЦИОННЫЙ БАНК







    SStone Temple Pilots • Plush (аккорды и текст - chords & lyrics)


    360

    Print

    Видео «Plush (Stone Temple Pilots)»

    Видео клипы к песне подбираются автоматически сайтом youtube. Возможны некоторые несоответствия клипов песне.

    ↑ Спрятать рекламу ↑





     
    
    
    e-----------------------------------------------------
    B-----------------------------------------------------
    G----------------------------------------------------- 
    D-----------------------------------------------------
    A-3-------3-3-x-3--3-3-x-3----3-------3-3-x-3--3-3-x-3
    E-0h1h2/3-3-3-x-2--1-1-x-0----0h1h2/3-3-3-x-2--1-1-x-0
    
    This is another way I learned it.
    
    e-3-------3-3--3--3-3-3----3-------3-3--3--3-3--3
    B-0h1h2/3-3-3--2--1-1-0----0h1h2/3-3-3--2--1-1--0
    G---------0-0--3--2-2-0------------0-0--3--2-2--0
    D------------------------------------------------
    A------------------------------------------------
    E------------------------------------------------
    
    4:20 FOR LIFE!!!!!
    
    Ricky St. Louis- Tilbury
     

    Тональность:

    Это должно быть в ТОП-листе! - Топ-лист композиций



    Назад
    Рекомендуем посмотреть другие песни исполнителя «Stone Temple Pilots»:

    • Комменты Fb ()
    • Комменты ВК



    Добавить в Избранное Браузера
    Сохранить здесь Очистить


    x

    0


    +
    -

    +
    -

    -

    Авторизация





    Зарегистрироваться

    M

    Дата и время

    • 00:18:28
       

    Социальные ссылки


    Наши приложения

    • Muzbank App Play Market
    • Muzbank Amazon App