MUZBANK


МУЗЫКАЛЬНО-ИНФОРМАЦИОННЫЙ БАНК





SStone Temple Pilots • Poopoo (аккорды и текст - chords & lyrics)


284

Print

Видео «Poopoo (Stone Temple Pilots)»

Видео клипы к песне подбираются автоматически сайтом youtube. Возможны некоторые несоответствия клипов песне.

↑ Спрятать рекламу ↑





 


poopoo
			------------
Traditional					Transcribed by
Arrangement					Mike Zraly


              Am         C             G
     slowly
 E |--------|----------|--0-----1--0-|----------|-------------|
 B |--------|--1-----3-|--1----------|--3-----0-|-----------0-|
 G |----2---|--2-------|--0----------|--0-------|--0-----2----|
 D |--------|----------|-------------|--0-------|--0----------|
 A |--------|--0-------|--3----------|----------|-------------|
 E |--------|----------|-------------|--3-------|--3----------|



     Am                       E                     Am

 E |----------|-------------|----------|----------|----------|
 B |--1-----0-|-------------|--0-------|----------|--1-----3-|
 G |--2-------|--2-----1--2-|--1-----1-|--------2-|--2-------|
 D |----------|--2----------|----------|--2-------|----------|
 A |--0-------|--0----------|----------|--2-------|--0-------|
 E |----------|-------------|--0-------|--0-------|----------|



     C             G                        Am         E

 E |--0-----1--0-|----------|-------------|----------|----------|
 B |--1----------|--3-----0-|-----------0-|--1--0----|----------|
 G |--0----------|--0-------|--0-----2----|--2-----2-|--1-----1-|
 D |-------------|--0-------|--0----------|----------|--2--4----|
 A |--3----------|----------|-------------|--0-------|----------|
 E |-------------|--3-------|--3----------|----------|--0-------|



     Am                    G
                           brightly
 E |----------|----------|-----3----------|--3-----1--0-|----------|
 B |----------|----------|-----0----------|--0----------|--3-----0-|
 G |--2-------|--2-------|-----0----------|--0----------|--0-------|
 D |--2-------|--2-------|----------------|-------------|--0-------|
 A |--0-------|--0-------|----------------|-------------|----------|
 E |----------|----------|-----3----------|--3----------|--3-------|



                   Am                       E

 E |-------------|----------|-------------|----------|----------|
 B |-----------0-|--1-----0-|-------------|--0-------|----------|
 G |--0-----2----|--2-------|--2-----1--2-|--1-----1-|----------|
 D |--0----------|----------|--2----------|----------|--2-------|
 A |-------------|--0-------|--0----------|----------|--2-------|
 E |--3----------|----------|-------------|--0-------|--0-------|



     G                                                 Am

 E |--3-------|--3-----1--0-|----------|-------------|----------|
 B |--0-------|--0----------|--3-----0-|-----------0-|--1--0----|
 G |--0-------|--0----------|--0-------|--0-----2----|--2-----2-|
 D |----------|-------------|--0-------|--0----------|----------|
 A |----------|-------------|----------|-------------|--0-------|
 E |--3-------|--3----------|--3-------|--3----------|----------|



     E                                Am             C
                                      slowly
 E |----------|----------|----------|--------------|--0-----1--0-|
 B |----------|----------|--------2-|----1-------3-|--1----------|
 G |--1-----1-|--2-------|----------|----2---------|--0----------|
 D |--2--4----|--2-------|----------|--------------|-------------|
 A |----------|--0-------|----------|----0---------|--3----------|
 E |--0-------|----------|----------|--------------|-------------|



     G                        Am                       E

 E |----------|-------------|----------|-------------|----------|
 B |--3-----0-|-----------0-|--1-----0-|-------------|--0-------|
 G |--0-------|--0-----2----|--2-------|--2-----1--2-|--1-----1-|
 D |--0-------|--0----------|----------|--2----------|----------|
 A |----------|-------------|--0-------|--0----------|----------|
 E |--3-------|--3----------|----------|-------------|--0-------|



                Am         C             G

 E |----------|----------|--0-----1--0-|----------|-------------|
 B |----------|--1-----3-|--1----------|--3-----0-|-----------0-|
 G |--------2-|--2-------|--0----------|--0-------|--0-----2----|
 D |--2-------|----------|-------------|--0-------|--0----------|
 A |--2-------|--0-------|--3----------|----------|-------------|
 E |--0-------|----------|-------------|--3-------|--3----------|



     Am         E          Am

 E |----------|----------|--------0-|--5-------||
 B |--1--0----|----------|-----1----|----------||
 G |--2-----2-|--1-----1-|--2-------|----------||
 D |----------|--2--4----|--2-------|----------||
 A |--0-------|----------|--0-------|----------||
 E |----------|--0-------|----------|----------||
 

Тональность:

Это должно быть в ТОП-листе! - Топ-лист композиций



Назад
Рекомендуем посмотреть другие песни исполнителя «Stone Temple Pilots»:

  • Комменты Fb ()
  • Комменты ВК



Добавить в Избранное Браузера
Сохранить здесь Очистить


x

0


+
-

+
-

-

Авторизация





Зарегистрироваться

M

Дата и время

  • 19:44:27
     

Социальные ссылки


Наши приложения

  • Muzbank App Play Market
  • Muzbank Amazon App