MUZBANK



A MOST COMPLETE BANK OF MUSIC INFORMATION

МУЗЫКАЛЬНО-ИНФОРМАЦИОННЫЙ БАНК







    SStory Of The Year • Until The Day I Die (аккорды и текст - chords & lyrics)


    254

    Print

    Видео «Until The Day I Die (Story Of The Year)»

    Видео клипы к песне подбираются автоматически сайтом youtube. Возможны некоторые несоответствия клипов песне.

    ↑ Спрятать рекламу ↑






     
    
    
    Hey all... I got these from a friend and made some changes.. good luck...
    
    Intro                                 2x        
    1|    |--------------------------------------|
    2|    |--------------------------------------|
    3|REST|--------------------------------------|
    4|    |-777-777-777-101010--333-333-333-5555-|
    
    1st Verse                            2x  2nd:
    1|-------------------------------------|-------------|-------------------------------
    2|-------------------------------------|-------------|-------------------------------
    3|-------------------5555-555----------|-------------|-------------------------------
    4|-7777-777-3333-333----------5555-555-|-5555-5/103-|-7777-7777-3333-3333-----------
    5|-------------------------------------|-------------|---------------------3333-3333-
    Cont.           2x                                                   2x        
    1|-----------|    |------------------------------------------|
    2|-----------|    |------------------------------------------|
    3|-----------|REST|------------------------------------------|
    4|-5555-5555-|    |-7777-7777-3333-3333-----------5555-5555--|
    5|-----------|    |---------------------3333-3333------------|
    
    Chorus                                3x
    1|----------------------------------|---------------|
    2|----------------------------------|---------------|
    3|----------------------------------|---------------|
    4|--333--555--7777-7777-7777-101098-|-333--555------|
    5|----------------------------------|-----------0~--|
    
    2nd Verse                                                2x
    1|-------------|-----------------------------------------|---------------------
    2|-------------|-----------------------------------------|---------------------
    3|-------------|---------------------5555-5555-----------|---------------------
    4|-5555-5/103-|-7777-7777-3333-3333-----------5555-5555-|-7777-7777-3333-3333-
    5|-------------|-----------------------------------------|---------------------
    Cont.
    1|-----------------------------------------------------------------------------------|
    2|-----------------------------------------------------------------------------------|
    3|--------------------------------------------------------------------------12121212-|
    4|-----------5555-5/103--7777-7777-3333-3333-----------5555-5555-5555-5555/---------|
    5|-3333-3333----------------------------------3333-3333------------------------------|
    
    Chorus  3x|----------|
              |----------|
              |----------|
              |-333--555-|
    Bridge                     4x        
    1|---------------------|------|
    2|---------------------|------|
    3|---------------------|------|
    4|-77--55--x33-333-333-|------|
    5|---------------------|--0~--|
    
    Interlude
    1|-----------------------------------------------------------------------------------|
    2|-----------------------------------------------------------------------------------|
    3|-2222-2222-0000-0000---------------------2222-2222-0000-0000-----------5h777-7/999-|
    4|---------------------3333-3333-3333-3333---------------------3333-3333-------------|
    Cont.
    1|-------------------------------------------------------|
    2|-------------------------------------------------------|
    3|-2-2--0-0-----------2-2--0-0-101010101010-121212121212-|
    4|-----------3-3-33-3------------------------------------|
    
    |    |            |------------------------------|------------------------------------
    |    |            |------------------------------|------------------------------------
    |REST|Chorus    3x|----------121212125/12121212-|------------------------------------
    |    |            |-333--555---------------------|-3333-3333-5555-5555-7777-7777-7777-
    Cont.                                                END
    1|------------------------------|        |-----------------|
    2|------------------------------|        |-----------------|
    3|------------------------------|Intro 2x|-----------------|
    4|--101098--3333-3333-5555-5555-|        |--77--55-333-3~--|
    
    best of luck to all.. I hope they are right, or at least they give you a start... bye..
     

    Тональность:

    Это должно быть в ТОП-листе! - Топ-лист композиций



    Назад
    Рекомендуем посмотреть другие песни исполнителя «Story Of The Year»:

    • Комменты Fb ()
    • Комменты ВК



    Добавить в Избранное Браузера
    Сохранить здесь Очистить


    x

    0


    +
    -

    +
    -

    -

    Авторизация





    Зарегистрироваться

    M

    Дата и время

    • 05:29:27
       

    Социальные ссылки


    Наши приложения

    • Muzbank App Play Market
    • Muzbank Amazon App
    • Muzbank Bitcoin13igjuWJj2R4cHiyZqP7Q3ggVvfXE9j82Q