MUZBANK



A MOST COMPLETE BANK OF MUSIC INFORMATION

МУЗЫКАЛЬНО-ИНФОРМАЦИОННЫЙ БАНК







    SStroke 9 • Latest Disaster (аккорды и текст - chords & lyrics)


    325

    Print

    Видео «Latest Disaster (Stroke 9)»

    Видео клипы к песне подбираются автоматически сайтом youtube. Возможны некоторые несоответствия клипов песне.

    ↑ Спрятать рекламу ↑






     
    
    
    Artist: Stroke 9
    Song: Latest Disaster
    Album: Rip it Off
    
    Intro:
    G-----------------|  |------------------------|
    D-----------------|  |------------------------|
    A--444--444--444--|  |--444--444--444--4------| 2x
    E-----------------|  |------------------2--2--|
    
    Verse:
    G-----------------|     |------------------------|
    D-----------------|     |------------------------|
    A--444--444--444--| 2x  |--444--444--444--4------| 2x
    E-----------------|     |------------------2--2--|
    
    Pre Chorus:
    G-----------------|    |---|
    D-----------------|    |---|
    A--4444-----------| 3x |-4-|
    E-------4-222222--|    |---|
    
    Chorus:
    G------------------------------------------------------------|
    D------------------------------------------------------------|
    A----------------------44444444------------------------------|Pause then Repeat
    E--44444444--22222222------------44444444--2222222222222222--|
    
    Fill:
    G-----------------|
    D-----------------|
    A--444--444--444--|
    E-----------------|
    
    Bridge 1:
    G------------------|
    D------------------|
    A--44--44--44------| 2x
    E--------------22--|
    
    Bridge Part 2:
    G----------------------------------------|
    D----------------------------------------|
    A--44444444------------------------------|
    E------------44444444--2222222222222222--|
    
    Outro Chorus:
    G--------------------------------|    
    D--------------------------------|    
    A--44444444----------------------| 3x (Third time hold F#)
    E------------44444444--22222222--|    
    
    Outro:
    G-----------------|
    D-----------------|
    A--444--444--444--|
    E-----------------|
     

    Тональность:

    Это должно быть в ТОП-листе! - Топ-лист композиций



    Назад
    Рекомендуем посмотреть другие песни исполнителя «Stroke 9»:

    • Комменты Fb ()
    • Комменты ВК



    Добавить в Избранное Браузера
    Сохранить здесь Очистить


    x

    0


    +
    -

    +
    -

    -

    Авторизация





    Зарегистрироваться

    M

    Дата и время

    • 01:09:46
       

    Социальные ссылки


    Наши приложения

    • Muzbank App Play Market
    • Muzbank Amazon App