MUZBANK



A MOST COMPLETE BANK OF MUSIC INFORMATION

МУЗЫКАЛЬНО-ИНФОРМАЦИОННЫЙ БАНК







    SStroke 9 • Latest Disaster (аккорды и текст - chords & lyrics)


    252

    Print

    Видео «Latest Disaster (Stroke 9)»

    Видео клипы к песне подбираются автоматически сайтом youtube. Возможны некоторые несоответствия клипов песне.

    ↑ Спрятать рекламу ↑






     
    
    
    Artist: Stroke 9
    Song: Latest Disaster
    Album: Rip it Off
    
    Intro:                *
    E-----------------|  |-------------------------|
    B-----------------|  |-------------------------|
    G--666--666--666--|  |--666--666--666--6-------|
    D--666--666--666--|  |--666--666--666--6-4--4--|
    A--444--444--444--|  |--444--444--444--4-4--4--| 2x
    E--444--444--444--|  |--444--444--444----2--2--|
    
    Guitar 2 *( This is the little riff played throughout the song ):
    
    E-0-0-0-0-0-1-3-3-3-3-1-0-0-0-0-0-1-3---|
    B-------------------------------------1-|
    G---------------------------------------|
    D---------------------------------------|
    A---------------------------------------|
    E---------------------------------------|
    
    Verse:                                            *
    E-----------------|     |-------------------------|
    B-----------------|     |-------------------------|
    G--666--666--666--|     |--666--666--666--6-------|
    D--666--666--666--|     |--666--666--666--6-4--4--|
    A--444--444--444--| 2x  |--444--444--444--4-4--4--| 2x
    E--444--444--444--|     |--444--444--444----2--2--|
    
    Pre Chorus:
    E-----------------|    |---|
    B-----------------|    |---|
    G--6666-----------|    |-6-|
    D--6666-6-444444--|    |-6-|
    A--4444-6-444444--| 3x |-4-|
    E-------4-222222--|    |---|
    
    Chorus:
    E------------------------------------------------------------|
    B------------------------------------------------------------|
    G----------------------66666666------------------------------|
    D--66666666--44444444--66666666--66666666--4444444444444444--|
    A--66666666--44444444--44444444--66666666--4444444444444444--|Pause then Repeat
    E--44444444--22222222------------44444444--2222222222222222--|
    
    Fill:
    E-----------------|
    B-----------------|
    G--666--666--666--|
    D--666--666--666--|
    A--444--444--444--|
    E--444--444--444--|
    
    Bridge 1:
    E------------------|
    B------------------|
    G--66--66--66------|
    D--66--66--66--44--|
    A--44--44--44--44--| 2x
    E--------------22--|
    
    Bridge Part 2:
    E----------------------------------------|
    B----------------------------------------|
    G--66666666------------------------------|
    D--66666666--66666666--4444444444444444--|
    A--44444444--66666666--4444444444444444--| 2x
    E------------44444444--2222222222222222--|
    
    Outro Chorus:
    E--------------------------------|
    B--------------------------------|
    G--66666666----------------------|    
    D--66666666--66666666--44444444--|    
    A--44444444--66666666--44444444--| 3x (Third time hold F#)
    E------------44444444--22222222--|    
    
    Outro:
    E-----------------|
    B-----------------|
    G--666--666--666--|
    D--666--666--666--|
    A--444--444--444--|
    E--444--444--444--|
     

    Тональность:

    Это должно быть в ТОП-листе! - Топ-лист композиций



    Назад
    Рекомендуем посмотреть другие песни исполнителя «Stroke 9»:

    • Комменты Fb ()
    • Комменты ВК



    Добавить в Избранное Браузера
    Сохранить здесь Очистить


    x

    0


    +
    -

    +
    -

    -

    Авторизация





    Зарегистрироваться

    M

    Дата и время

    • 01:11:08
       

    Социальные ссылки


    Наши приложения

    • Muzbank App Play Market
    • Muzbank Amazon App