MUZBANK



A MOST COMPLETE BANK OF MUSIC INFORMATION

МУЗЫКАЛЬНО-ИНФОРМАЦИОННЫЙ БАНК







    SStrokes • 12 51 (аккорды и текст - chords & lyrics)


    309

    Print

    Видео «12 51 (Strokes)»

    Видео клипы к песне подбираются автоматически сайтом youtube. Возможны некоторые несоответствия клипов песне.

    ↑ Спрятать рекламу ↑






     
    
    
    Intro
    G:---------------------- |
    D:---------------------- |
    A:-7-7-7-7-7-7-7-7------ |       x6
    E:---------------------- |
    
    
    Verse
    G:----------------|-----------------|----------------|---------------|
    D:----------------|-----------------|----------------|---------------|
    A:-7-7-7-7-7-7-7-7|-0-0-0-0-0-0-0-0-|-9-9-9-9-9-9-9-9|-2-2-2-2-2-2-2-|   x4
    E:----------------|-----------------|----------------|---------------|
    
    Bridge 
    G:-----------------|-----------------|----------------|---------------|
    D:-----------------|-----------------|----------------|---------------|
    A:-3-3-3-3-3-3-3-3-|-3-3-3-3-3-3-3-3-|7-7-7-7-7-7-7-7-|7-7-7-7-7-7-7-7|   x4
    E:-----------------|-----------------|----------------|---------------|
    
    Instrumental
    G:----------------------|--------------------|
    D:----------------------|--------------------|
    A:----------------------|-4--4-4--2--2-2-----|       x4
    E:-0-0-0-0-0-0-0-0------|--------------------|
    
    Verse
    G:----------------|-----------------|----------------|---------------|
    D:----------------|-----------------|----------------|---------------|
    A:-7-7-7-7-7-7-7-7|-0-0-0-0-0-0-0-0-|-9-9-9-9-9-9-9-9|-2-2-2-2-2-2-2-|   x4
    E:----------------|-----------------|----------------|---------------|
    
    Instrumental
    G:----------------------|--------------------|
    D:----------------------|--------------------|
    A:----------------------|-4--4-4--2--2-2-----|       x4
    E:-0-0-0-0-0-0-0-0------|--------------------|
    
    Bridge 
    G:-----------------|-----------------|----------------|---------------|
    D:-----------------|-----------------|----------------|---------------|
    A:-3-3-3-3-3-3-3-3-|-3-3-3-3-3-3-3-3-|7-7-7-7-7-7-7-7-|7-7-7-7-7-7-7-7|   x4
    E:-----------------|-----------------|----------------|---------------|
    
    Verse
    G:----------------|-----------------|----------------|---------------|
    D:----------------|-----------------|----------------|---------------|
    A:-7-7-7-7-7-7-7-7|-0-0-0-0-0-0-0-0-|-9-9-9-9-9-9-9-9|-2-2-2-2-2-2-2-|   x4
    E:----------------|-----------------|----------------|---------------|
    
    Instrumental
    G:----------------------|--------------------|
    D:----------------------|--------------------|
    A:----------------------|-4--4-4--2--2-2---- |       x4
    E:-0-0-0-0-0-0-0-0------|--------------------|
    
    
    Outro
    G:---------------------|---------------|
    D:---------------------|---------------|
    A:-7-7-7-7-7-7-7-7---- |-7-7-7-7-7-----|
    E:---------------------|---------------|
     

    Тональность:

    Это должно быть в ТОП-листе! - Топ-лист композиций



    Назад
    Рекомендуем посмотреть другие песни исполнителя «Strokes»:

    • Комменты Fb ()
    • Комменты ВК



    Добавить в Избранное Браузера
    Сохранить здесь Очистить


    x

    0


    +
    -

    +
    -

    -

    Авторизация





    Зарегистрироваться

    M

    Дата и время

    • 00:25:12
       

    Социальные ссылки


    Наши приложения

    • Muzbank App Play Market
    • Muzbank Amazon App