MUZBANK



A MOST COMPLETE BANK OF MUSIC INFORMATION

МУЗЫКАЛЬНО-ИНФОРМАЦИОННЫЙ БАНК







    SStrokes • 12 51 (аккорды и текст - chords & lyrics)


    263

    Print

    Видео «12 51 (Strokes)»

    Видео клипы к песне подбираются автоматически сайтом youtube. Возможны некоторые несоответствия клипов песне.

    ↑ Спрятать рекламу ↑






     
    
    
    The Strokes - 12:51
    
    Tabbed by: Miranda Harding
    Email:miranda.harding@btopenworld.com
    
    Tuning: Standard
    
    RHYTHM (Guitar 1)
    Intro Pt. 1     
    e|--12-|-----|
    B|--12-|--9--|
    G|--9--|--9--|
    D|-----|--9--|
    A|-----|--7--|
    E|-----|-----|
    
    Intro Pt. 2 (x2)
    e|--------------|-------------|
    B|----10--------|--9----------|
    G|-.---9--x-16--|--9--x-16--.-|
    D|-.--10--------|--9--------.-|
    A|--------------|-------------|
    E|--------------|-------------|
    
    Verse (x2)
    e|---------|---------|---------|---------|
    B|---------|---------|---------|---------|
    G|--1------|---------|---------|---------|
    D|--2--x8--|--7------|--4------|--9------|
    A|--2------|--7--x8--|--4--x8--|--9--x8--|
    E|--0------|--5------|--2------|--7------|
    
    Interlude (x4)
    e|---------|----------|---------|
    B|---------|----------|---------|
    G|--9------|---9------|--8------|
    D|--9--x8--|--11--x4--|--9--x4--|
    A|--7------|--11------|--9------|
    E|--0------|---9------|--7------|
    
    REPEAT VERSE
    REPEAT INTERLUDE
    REPEAT INTRO PT.2
    REPEAT VERSE
    REPEAT INTERLUDE
    
    ---------------------------------------------------------------------------
    
    LEAD (GUITAR 2)
    VERSE (x2)
    e|--------------------------------------------------|
    B|--9-----------9-----------------------------------|
    G|----9--11--9------11---9---11--8--9--8--11--9--8--|
    D|--------------------------------------------------|
    A|--------------------------------------------------|
    E|--------------------------------------------------|
    
    INTERLUDE (x2)
    e|---------------------------------------------------------------|
    B|--12-------------12-------------12-----------------------------|
    G|-----13--11--13-----13--11--13------13--11--13--9--13--11--13--|
    D|---------------------------------------------------------------|
    A|---------------------------------------------------------------|
    E|---------------------------------------------------------------|
    
    REPEAT VERSE
    REPEAT INTERLUDE
    
    CHORUS (x2)
    e|------------------|--12--------------|
    B|--13--15--12--13--|------15--13--12--|
    G|------------------|------------------|
    D|------------------|------------------|
    A|------------------|------------------|
    E|------------------|------------------|
    
    e|--12-----------------------------------------|
    B|----------15--13--12----12----------15---12--|
    G|------14------------------------14-----------|
    D|----------------------------14---------------|
    A|---------------------------------------------|
    E|---------------------------------------------|
    
    e|------------------|--12--------------------------|
    B|--13--15--12--13--|------15--13--12--13--12--13--|
    G|------------------|------------------------------|
    D|------------------|------------------------------|
    A|------------------|------------------------------|
    E|------------------|------------------------------|
    
    REPEAT VERSE
    REPEAT INTERLUDE
    
    END
     

    Тональность:

    Это должно быть в ТОП-листе! - Топ-лист композиций



    Назад
    Рекомендуем посмотреть другие песни исполнителя «Strokes»:

    • Комменты Fb ()
    • Комменты ВК



    Добавить в Избранное Браузера
    Сохранить здесь Очистить


    x

    0


    +
    -

    +
    -

    -

    Авторизация





    Зарегистрироваться

    M

    Дата и время

    • 05:03:33
       

    Социальные ссылки


    Наши приложения

    • Muzbank App Play Market
    • Muzbank Amazon App