MUZBANK



A MOST COMPLETE BANK OF MUSIC INFORMATION

МУЗЫКАЛЬНО-ИНФОРМАЦИОННЫЙ БАНК







    SStrokes • Last Night Live (аккорды и текст - chords & lyrics)


    313

    Print

    Видео «Last Night Live (Strokes)»

    Видео клипы к песне подбираются автоматически сайтом youtube. Возможны некоторые несоответствия клипов песне.

    ↑ Спрятать рекламу ↑





     
    
    
    Last Nite by the Strokes
    tabbed by Kramer
    
    Intro
    
    (the way they play it is standard except each string is being strummed, only 2 are ringing.  So you gotta 
    the other 4 strings.  If the strokes played the way the people who tab their songs out, they would sound 
     But this is the best way to play the song.)
    
    Guitar 2
    E|-----
    B|-----
    G|--5--
    D|--x--
    A|--3--
    E|-----
    repeat until verse one
    
    Guitar 1 (comes in after drums)
    
    E|-------------------|
    B|-------------------|
    G|-------------------|
    D|--10-------10------|
    A|---8-------10------|
    E|---8-(x8)---8-(x8)-|
    repeat until verse one
    
    Verses
    
    Guitar 2
    
    (This is the best way to play the rythm part.  Mute all strings except B, G, and D.  Play it the way you 
    it on the record.  The sloppier the better.)
    
        x12    x6    x6
    E|--------------------|
    B|--5-----10-----12---|
    G|--5-----10-----12---|
    D|--5-----10-----12---|
    A|--------------------|
    E|--------------------|
    
    Guitar 1
       x8    x4     x4
    E|--8-----1------3----|
    B|--8-----1------3----|
    G|--9-----2------4----|
    D|--10----3------5----|
    A|--------------------|
    E|--------------------|
    
    Refrain (SAME AS INTRO)
    
    Verse 2
    
    Pre-solo
    
    Guitar 2 (listen and notice they change the strumming style)
    
    E|---------|
    B|---------|
    G|---------|
    D|---10----|
    A|----x----|
    E|----8----|
    
    then after a few measures:
    
    Guitar 1
    
    E|---------|
    B|---------|
    G|---17----|
    D|----x----|
    A|---15----|
    E|---------|
    
    (Solo)
    
    Outro
    
    (again, a different strumming style.  better idea listen to the song than me try to describe it.)
    
    Guitar 2
    E|------------------|
    B|------------------|
    G|--5---------------|
    D|--x---------------|
    A|--3---------------|
    E|------------------|
    
    Guitar 1
    E|------------------|
    B|------------------|
    G|------------------|
    D|--10--------------|
    A|---x--------------|
    E|---8--------------|
    
    Guitar 2 ends the song with the first figure.
    
    
    My email is Jewggers@epimp.com.
     

    Тональность:

    Это должно быть в ТОП-листе! - Топ-лист композиций



    Назад
    Рекомендуем посмотреть другие песни исполнителя «Strokes»:

    • Комменты Fb ()
    • Комменты ВК



    Добавить в Избранное Браузера
    Сохранить здесь Очистить


    x

    0


    +
    -

    +
    -

    -

    Авторизация





    Зарегистрироваться

    M

    Дата и время

    • 21:13:06
       

    Социальные ссылки


    Наши приложения

    • Muzbank App Play Market
    • Muzbank Amazon App