MUZBANK



A MOST COMPLETE BANK OF MUSIC INFORMATION

МУЗЫКАЛЬНО-ИНФОРМАЦИОННЫЙ БАНК







    SStrokes • Take It Or Leave It (аккорды и текст - chords & lyrics)


    304

    Print

    Видео «Take It Or Leave It (Strokes)»

    Видео клипы к песне подбираются автоматически сайтом youtube. Возможны некоторые несоответствия клипов песне.

    ↑ Спрятать рекламу ↑





     
    
    
    Artist: The Strokes
    Song: Take It Or Leave It
    Album: Is This It
    Bassist: Nikolai Fraiture
    Tabbed By: Jaxon Taylor
    EMail: at_the_drivein@hotmail.com
    
    Now although this is my first tab : ), I am 99% sure that this is correct. 
    I haven’t really written the timing but I know for sure the notes are right.
    
    INTRO
    G[------------------------------------------------------------]
    D[------------------------------------------------------------]
    A[-12---11----8-----------------------------------------------]
    E[------------------------------8-----------------------------]
    
    VERSE
    G[--------------------------------------------------------------------]
    D[--------------------------------------------------------------------]
    A[--3333---1111---5555-----3333---1111---5555------3333---1111—5--5---]
    E[--------------------------------------------------------------------]
    
    “Take it or leave it”
    G[-------------------------------------------------------------]
    D[-------------------------------------------------------------]
    A[--33333333-11111111-5555555555555555-------------------------]	x2
    E[-------------------------------------------------------------]
    Finish on A[-3-]
    
    SHORT REST
    
    CHORUS
    G[-------------------------------------------------]
    D[-------------------------------------------------]
    A[-3 / 12-12-12-12-11-11-11-11-88888888------------]
    E[----------------------------------------88888888-]
    
    G[------------------------------------------------]
    D[------------------------------------------------]
    A[--12-12-12-12-11-11-11-11-88888888--------------] x5
    E[------------------------------------88888888----]
    
    SHORT REST
    
    VERSE
    On Last Part of verse play
    A[-3-3-3-3-6-3-3-3-3-]
    SOLO
    G[---------------------------------------------]
    D[---------------------------------------------]	X4
    A[-33333--33333--33333--33333------------------]
    E[---------4--------4--------4--------4--------]
    
    G[---------------------------------------------]
    D[---------------------------------------------]	
    A[-33333--33333--33333--33333333---------------]
    E[---------4--------4--------4-----------------]
    
    CHORUS
    
    ENDING
    G[--------------------------------]
    D[--------------------------------]	
    A[-33333--33333-------------------]
    E[---------4--------4-------------]
    
    There it is, fun song to play, not hard. 
    Try and feel the rhythm changes through the verses, 
    they give the song a good build up on to the ‘Take it or Leave it” 
    part.
    Now the two notes on the 8th fret in the 
    chorus aren’t actually there on the CD. 
    But they sound right and follow the guitar accurately.
    
    
    Jaxon Taylor:   at_the_drivein@hotmail.com 
    (email me and tell what u thought)
     

    Тональность:

    Это должно быть в ТОП-листе! - Топ-лист композиций



    Назад
    Рекомендуем посмотреть другие песни исполнителя «Strokes»:

    • Комменты Fb ()
    • Комменты ВК



    Добавить в Избранное Браузера
    Сохранить здесь Очистить


    x

    0


    +
    -

    +
    -

    -

    Авторизация





    Зарегистрироваться

    M

    Дата и время

    • 01:09:08
       

    Социальные ссылки


    Наши приложения

    • Muzbank App Play Market
    • Muzbank Amazon App