MUZBANK



A MOST COMPLETE BANK OF MUSIC INFORMATION

МУЗЫКАЛЬНО-ИНФОРМАЦИОННЫЙ БАНК







    SSublime • Get Ready (аккорды и текст - chords & lyrics)


    277

    Print

    Видео «Get Ready (Sublime)»

    Видео клипы к песне подбираются автоматически сайтом youtube. Возможны некоторые несоответствия клипов песне.

    ↑ Спрятать рекламу ↑





     
    
    
    Song: Get Ready
    Band: Sublime
    Album: Self Titled
    Tabbed by: Rob MacGuffie (SubDubLBC@aol.com)
    Tuning: Standard
    Visit My Sublime Bass Tab Site: http:subdublbc.tripod.com
    
     First Part
     |---------------------|
     |---------------------|
     |---------------------|
     |-5h7-5-5-5-5-5-x-5-5-|
    
     Then:
     |------------|
     |------------|
     |------2-2-0-|
     |-2--2-------|
    
     Next:
     |------------|
     |------------|
     |------2-2---|
     |-0--0-----2-|
    
     Then, near the end is this part:
     |--------------------------|
     |--------------------------|
     |--------------------------|
     |-5-5-5-5-5-5--5-5-5-5-7-5-|
    
     After that last Part just repaet the 
     other parts. Listen to the song to get exacts.
    
    
     |Key|
    
    h = Hammer-on
    x = Mute
     

    Тональность:

    Это должно быть в ТОП-листе! - Топ-лист композиций



    Назад
    Рекомендуем посмотреть другие песни исполнителя «Sublime»:

    • Комменты Fb ()
    • Комменты ВК



    Добавить в Избранное Браузера
    Сохранить здесь Очистить


    x

    0


    +
    -

    +
    -

    -

    Авторизация





    Зарегистрироваться

    M

    Дата и время

    • 19:31:35
       

    Социальные ссылки


    Наши приложения

    • Muzbank App Play Market
    • Muzbank Amazon App