MUZBANK



A MOST COMPLETE BANK OF MUSIC INFORMATION

МУЗЫКАЛЬНО-ИНФОРМАЦИОННЫЙ БАНК







    SSublime • Pawn Shop (аккорды и текст - chords & lyrics)


    255

    Print

    Видео «Pawn Shop (Sublime)»

    Видео клипы к песне подбираются автоматически сайтом youtube. Возможны некоторые несоответствия клипов песне.

    ↑ Спрятать рекламу ↑






     
    
    
    Sublime
    Pawn Shop intro Solo
    Tuning: E A D G B E	
    
    Note:Timing is as close as I could get it without
         confusing anybody. Even though this will probably
         confuse you.
    Key:
        Palm Mute = ....
        Natural Harmonic = #{    
        Slide up or down = / 
    
             4x
    |---------|--------------------------------------------------------|
    |---------|--------------------------------------------------------|
    |---------|-------------------7----------------------7-----9{------|
    |-----5---|---7/9---7-5-7-9------7/9---7-5-----5-7-9---9-----------|
    |-5-7---7-|--------------------------------7-----------------------|
    |---------|--------------------------------------------------------|
    
           
    |-----------------------------------------------------------------|
    |-----------------------------------------------------------------|
    |------------------7-----9{-------------------------7-----9{------|
    |9---7-5-----5-7-9---9-----------9----7-5-----5-7-9---9-----------|
    |--------7--------------------------------7-----------------------|
    |-----------------------------------------------------------------|
    
           
    |-----------------------------------------------------------------|
    |-----------------------------------------------------------------|
    |------------------7-------7-9-12-9vvvvv------------------7-7-9-12|
    |9---7-5-----5-7-9---9-7-9----------------------------------------|
    |--------7--------------------------------------------------------|
    |-----------------------------------------------------------------|
    
             
    |-----------------------------------------------------------------|
    |-----------------------------------------------------------------|
    |9---9---7---------7----------7-9-12-9------9/16-14-12-14-16--19--|
    |----------9-7-9--------------------------------------------------|
    |-----------------------------------------------------------------|
    |-----------------------------------------------------------------|
    
            
    |-----------------------------------------------------------------|
    |----------------------15----------15-17-19-17vvv-----15-15-17-19-|
    |16--14-12----12-14-16----16-14-16--------------------------------|
    |----------14-----------------------------------------------------|
    |-----------------------------------------------------------------|
    |-----------------------------------------------------------------|
    
     
    |-------------------------------------------------------------------|
    |17--17--15---------------------------------------------------------|
    |----------16-14-16-12-14-9-12-7-9----------------------------------|
    |-------------------------------------------------------------------|
    |----------------------------------7-7-10-7-7-7-10-7------------7-7-|
    |----------------------------------------------------7-7-7-10-------|
                                       . .    . . .    . . .        . .
          
    |----------------------------------------------------------------|
    |----------------------------------------------------------------|
    |----------------------------------------------------------------|
    |----------------------------------------------------------------|
    |10-7-7-7-10-7---------------7-7-10-7-7-7-10-7-------------------|
    |--------------7-7-7---10----------------------7-7-7---10--------|
        . . .    . . .           . .    . . .    . . .
     

    Тональность:

    Это должно быть в ТОП-листе! - Топ-лист композиций



    Назад
    Рекомендуем посмотреть другие песни исполнителя «Sublime»:

    • Комменты Fb ()
    • Комменты ВК



    Добавить в Избранное Браузера
    Сохранить здесь Очистить


    x

    0


    +
    -

    +
    -

    -

    Авторизация





    Зарегистрироваться

    M

    Дата и время

    • 12:19:19
       

    Социальные ссылки


    Наши приложения

    • Muzbank App Play Market
    • Muzbank Amazon App