MUZBANK



A MOST COMPLETE BANK OF MUSIC INFORMATION

МУЗЫКАЛЬНО-ИНФОРМАЦИОННЫЙ БАНК







    SSublime • Seed (аккорды и текст - chords & lyrics)


    220

    Print

    Видео «Seed (Sublime)»

    Видео клипы к песне подбираются автоматически сайтом youtube. Возможны некоторые несоответствия клипов песне.

    ↑ Спрятать рекламу ↑






     
    
    
    Band: Sublime
    Song: Seed
    Album: Sublime
    Tabbed by: Jason Davis
    
    Okay, here we go.  First, all the notes are there, I just did not tab out the
    exact number of notes to play when the music is going fast because it would be a
    waste of time to sit there and count them all.  As with all Sublime songs, just
    listen very close to get the rythm and timing down, especially on the outro.  
    Also the X on the tab means fret 10.  This song is a lot of fun to play and sing
    along.
    
    
    Intro (PART A)
    G:--------------------------------------
    D:--------------------------------------
    A:--------------------------------------
    E:-5555555-3-1111111-3333333------------
    
    Verse (PART B)
    Play the first half slow, and haul ass on the second!
    G:-------------------|--------------------------
    D:-------------------|----------------3-5-------
    A:-3---33-2-0-0------|--5-----5---3-------3-----
    E:---3----------3-1--|----5h7---3---5-----------
    
    Fast Part (PART C)
    G:----------------------------
    D:----------------------------
    A:-3-------5-----3h5----------
    E:---5-3-1---3-5--------------
    
    Rock Part (PART D)
    G:----------|---------------------
    D:----------|---------------------
    A:-3---5----|----------1----------
    E:---5---3--|--1-3-1-3---1-5------
    
    Verse 2 (PART E)
    Play the whole thing slow this time.
    G:-------------------------------------------------------------
    D:-------------------------------------------------------------
    A:-3---3-2-0-0-----5-5-----5---3-3-3-3-0-0-----5-5-----5-------
    E:---3---------3-1-----5h7---3-------------3-1-----5h7---3-----
    
    Guitar Solo (PART F) Im not 100% sure about this, but it is close.
    G:---------5---5-----------------------
    D:-7-3---3---3---3-7/x-9-3-6-5-3-------
    A:-----3-------------------------3-----
    E:-------------------------------------
    
    Outro (PART G)
    Basically a long variation of the verse. Play first part slow, second part fast.
    G:------------------|-----------------------------------------------------
    D:------------------|-----------------------------------------------------
    A:-3---3-3-0-0------|-5-----5---5---3--2-0-------0-3-2-0---3---3---5------
    E:---3---------3-1--|---5h7---3---3---3----3-1-3---------1---1---3---5/x-
    
    Outro (cont.)
    G:-----------------------------
    D:-----------------------------
    A:-3-0-5---3-0---------1-------
    E:-------3-----1-3-1-3---1-5---
    Eric also does some hammer on stuff there at the end.
    
    Song Structure
    PART A
    PART B
    PART A
    PART E
    PART C
    PART D
    PART F
    PART A
    PART G
    
    Questions or Comments to: Larz311@bellsouth.net
     

    Тональность:

    Это должно быть в ТОП-листе! - Топ-лист композиций



    Назад
    Рекомендуем посмотреть другие песни исполнителя «Sublime»:

    • Комменты Fb ()
    • Комменты ВК



    Добавить в Избранное Браузера
    Сохранить здесь Очистить


    x

    0


    +
    -

    +
    -

    -

    Авторизация





    Зарегистрироваться

    M

    Дата и время

    • 01:49:48
       

    Социальные ссылки


    Наши приложения

    • Muzbank App Play Market
    • Muzbank Amazon App