MUZBANK



A MOST COMPLETE BANK OF MUSIC INFORMATION

МУЗЫКАЛЬНО-ИНФОРМАЦИОННЫЙ БАНК







    SSublime • Under My Voodoo (аккорды и текст - chords & lyrics)


    296

    Print

    Видео «Under My Voodoo (Sublime)»

    Видео клипы к песне подбираются автоматически сайтом youtube. Возможны некоторые несоответствия клипов песне.

    ↑ Спрятать рекламу ↑






     
    
    
    Song: Under My Voodoo
    Band: Sublime
    Album: Selt Titled
    Tabbed by: Rob MacGuffie (SubDubLBC@aol.com)
    Tuning: Standard
    Visit My Sublime Bass Tab Site: http:subdublbc.tripod.com
    
    
     Main Verse: Play 32x
     |--------------|
     |-------5------|
     |-5h7-x----7-7-|
     |--------------|
    
     Then: Chorus
     |-------------------------------------|
     |--5-5-5-5-5-5-5-5--4-4-4-4--3-3-3-3--|
     |-------------------------------------|
     |-------------------------------------|
     
     Main Verse: Play 4x
     |--------------|
     |-------5------|
     |-5h7-x----7-7-|
     |--------------|
     
     Then
     |-------------------------------|
     |--5-5-5-5-5-5-5-5--7-7-7-7--9--|
     |-------------------------------|
     |-------------------------------|
    
    
     Then
     
     Main Verse: Play 4x
     |--------------|
     |-------5------|
     |-5h7-x----7-7-|
     |--------------|
     
     Then: Chorus
     |-------------------------------------|
     |--5-5-5-5-5-5-5-5--4-4-4-4--3-3-3-3--|
     |-------------------------------------|
     |-------------------------------------|
     
     Main Verse: Play 4x
     |--------------|
     |-------5------|
     |-5h7-x----7-7-|
     |--------------|
     
     Then
     |-------------------------------|
     |--5-5-5-5-5-5-5-5--7-7-7-7--9--|
     |-------------------------------|
     |-------------------------------|
    
    
     Main Verse: Play 20x
     |--------------|
     |-------5------|
     |-5h7-x----7-7-|
     |--------------|
    
     Then: Chorus
     |-------------------------------------|
     |--5-5-5-5-5-5-5-5--4-4-4-4--3-3-3-3--|
     |-------------------------------------|
     |-------------------------------------|
     
     Main Verse: Play 4x
     |--------------|
     |-------5------|
     |-5h7-x----7-7-|
     |--------------|
    
     
     Then: This is the False Ending part.
     |-------------------------------------|
     |--5-5-5-5-5-5-5-5--7-7-7-7--9--------|
     |----------------------------------(7)|
     |-------------------------------------|
    
     
     Main Verse: Play 26x, progresively slow the tempo down.
     |--------------|
     |-------5------|
     |-5h7-x----7-7-|
     |--------------|
      
     After the 26th time of playing the verse, play this.
     |-----|
     |-----|
     |-(7)-|
     |-----|
    
    
     Key:
     ()= Let Ring   
     x=Mute
     

    Тональность:

    Это должно быть в ТОП-листе! - Топ-лист композиций



    Назад
    Рекомендуем посмотреть другие песни исполнителя «Sublime»:

    • Комменты Fb ()
    • Комменты ВК



    Добавить в Избранное Браузера
    Сохранить здесь Очистить


    x

    0


    +
    -

    +
    -

    -

    Авторизация





    Зарегистрироваться

    M

    Дата и время

    • 00:10:11
       

    Социальные ссылки


    Наши приложения

    • Muzbank App Play Market
    • Muzbank Amazon App