MUZBANK



A MOST COMPLETE BANK OF MUSIC INFORMATION

МУЗЫКАЛЬНО-ИНФОРМАЦИОННЫЙ БАНК







    SSublime • What I Got (аккорды и текст - chords & lyrics)


    201

    Print

    Видео «What I Got (Sublime)»

    Видео клипы к песне подбираются автоматически сайтом youtube. Возможны некоторые несоответствия клипов песне.

    ↑ Спрятать рекламу ↑






     
    
    
    Submitted by: Mark Davidsdon
    
    This was really easy
    it only took me a sec.  Good luck!
    
    
    E|----------------
    B|-----3----------
    G|-------2--------    Keep Repeating Through the begin, 
    D|--0------0------    until solo.
    A|----------------
    E|-----------3----
    
    E|---------1-------------------
    B|----1--3---3-1/3-----7--5--33
    G|--2------------------7--5--44   First Part
    D|-----------------------------
    A|-----------------------------
    E|-----------------------------
    
    E|--------------10-------------------------
    B|--------10-12----12--12-10-13-12---------
    G|--11-12--------------------------12-12^--
    D|-----------------------------------------
    A|-----------------------------------------
    E|-----------------------------------------
    
    Ther you go all 4 u.  ^i^
     

    Тональность:

    Это должно быть в ТОП-листе! - Топ-лист композиций



    Назад
    Рекомендуем посмотреть другие песни исполнителя «Sublime»:

    • Комменты Fb ()
    • Комменты ВК



    Добавить в Избранное Браузера
    Сохранить здесь Очистить


    x

    0


    +
    -

    +
    -

    -

    Авторизация





    Зарегистрироваться

    M

    Дата и время

    • 00:23:48
       

    Социальные ссылки


    Наши приложения

    • Muzbank App Play Market
    • Muzbank Amazon App