MUZBANK



A MOST COMPLETE BANK OF MUSIC INFORMATION

МУЗЫКАЛЬНО-ИНФОРМАЦИОННЫЙ БАНК







    SSuede • Crack In The Union Jack (аккорды и текст - chords & lyrics)


    376

    Print

    Видео «Crack In The Union Jack (Suede)»

    Видео клипы к песне подбираются автоматически сайтом youtube. Возможны некоторые несоответствия клипов песне.

    ↑ Спрятать рекламу ↑





     
    
    
    Tabbed by AAuuddee@aol.com
    
    
    ACOUSTIC GUITAR THROUGHOUT THE WHOLE SONG
    
    
    INTRO:
    
      G   F
    --3---1---|
    --3---1---|
    --4---2---| repeat
    --5---3---|
    --5---3---|
    --3---1---|
    
    
    VERSE1:
    
      G   F
    --3---1---|
    --3---1---|
    --4---2---| repeat
    --5---3---|
    --5---3---|
    --3---1---|
    
    
    CHORUS:
    
      Am  G   F   C   Am  G   Bb  C
    --0---3---1---0---0---3---1---0--|
    --1---0---1---1---1---0---3---1--|
    --2---0---2---0---2---0---3---0--|
    --2---0---3---2---2---0---3---2--|
    --0---2---3---3---0---2-------3--|
    ------3---1-----------3----------|
    
    
    VERSE2:
    
      G   F
    --3---1---|
    --3---1---|
    --4---2---| repeat
    --5---3---|
    --5---3---|
    --3---1---|
    
    
    CHORUS:
    
      Am  G   F   C   Am  G   Bb  C  Bb   C
    --0---3---1---0---0---3---1---0---1---0--|
    --1---0---1---1---1---0---3---1---3---1--|
    --2---0---2---0---2---0---3---0---3---0--|
    --2---0---3---2---2---0---3---2---3---2--|
    --0---2---3---3---0---2-------3-------3--|
    ------3---1-----------3------------------|
    
    ENJOY!!
     

    Тональность:

    Это должно быть в ТОП-листе! - Топ-лист композиций



    Назад
    Рекомендуем посмотреть другие песни исполнителя «Suede»:

    • Комменты Fb ()
    • Комменты ВК



    Добавить в Избранное Браузера
    Сохранить здесь Очистить


    x

    0


    +
    -

    +
    -

    -

    Авторизация





    Зарегистрироваться

    M

    Дата и время

    • 01:11:21
       

    Социальные ссылки


    Наши приложения

    • Muzbank App Play Market
    • Muzbank Amazon App