MUZBANK



A MOST COMPLETE BANK OF MUSIC INFORMATION

МУЗЫКАЛЬНО-ИНФОРМАЦИОННЫЙ БАНК







    SSugarcult • Bouncing Off The Walls Again (аккорды и текст - chords & lyrics)


    345

    Print

    Видео «Bouncing Off The Walls Again (Sugarcult)»

    Видео клипы к песне подбираются автоматически сайтом youtube. Возможны некоторые несоответствия клипов песне.

    ↑ Спрятать рекламу ↑





     
    
    
    TABBED BY GIULIO
    THANKS TO IMBODULATING SNOWMEN OF GLENDALE, ARIZONA
    
    Key:
    / = Slide
    #h# = Hammer-on
    #p# = Pull-off
    * = Sustain
    
    
    Intro
    G|------|
    D|------|
    A|-/14--|
    E|------|
    
    Verse 1        x3
    G|-------------|
    D|-------------|
    A|----44-22-22-|
    E|-22----------|
    
    Fourth Time
    G|-----------------|
    D|-------99999999/0|
    A|----44-----------|
    E|-22--------------|
    
    Chorus 1        x3
    G|--------------|
    D|--------------|
    A|----22-4-2----|
    E|-00--------4-2|
    
    G|--------------|
    D|--------------|
    A|---------44-44|
    E|-0-0-0-0------|
    
    Verse 2        x3
    G|-------------|
    D|-------------|
    A|----44-22-22-|
    E|-22----------|
    
    Fourth Time
    G|------------------|
    D|-------4444/99990|
    A|----44------------|
    E|-22---------------|
    
    Chorus 2        x3
    G|--------------|
    D|--------------|
    A|----22-4-2----|
    E|-00--------4-2|
    
    Fourth Time
    G|---------------|
    D|---------------|
    A|---------22-44-|
    E|-0-0-0-0-------|
    
    Solo
    G|-----------------------------------------------|
    D|-----------------------------------------------|
    A|----44-22-22----4-2-22-22-----44-22-22-----222-|
    E|-22-----------2------------22----------222-----|
    
    G|--------------------------------------|
    D|-9999990-----------------------------|
    A|-------------22-4-2--------22-4-2-----|
    E|----------00--------4-2-00--------4-2-|
    
    G|--------------------------------------------------------------------|
    D|--------------------------------------13*-----------------13*-------|
    A|----22-4-2--------/12-14-12-----12-14-----14-12-----12-14-----14-12-|
    E|-00--------4-2-2*-----------11*-----------------11*-----------------|
    
    Breakdown
    G|-------------------------------------------------------|
    D|-------------------------------------------------------|
    A|-------22-44-------22-44-------22-44-------22-44444444-|
    E|-22-22-------22-22-------22-22-------22-22-------------|
    
    End
    G|---------------------------------------------------------|
    D|-------------------------------------------------/999999-|
    A|----44-22-22----44-22-22----44-22-22-----222-444---------|
    E|-22----------22----------22----------222-----------------|
    
    G|-------------------------------------------------------------|
    D|------------------------------------------------/999999------|
    A|----44-22-22----44-2-3-4-5----44-22-22----44-22-----------22-|
    E|-22----------22------------22----------22---------------22---|
    
    THIS HAS TO BE ONE OF THE EASIEST SONGS IVE EVER PLAYED
     

    Тональность:

    Это должно быть в ТОП-листе! - Топ-лист композиций



    Назад
    Рекомендуем посмотреть другие песни исполнителя «Sugarcult»:

    • Комменты Fb ()
    • Комменты ВК



    Добавить в Избранное Браузера
    Сохранить здесь Очистить


    x

    0


    +
    -

    +
    -

    -

    Авторизация





    Зарегистрироваться

    M

    Дата и время

    • 19:30:59
       

    Социальные ссылки


    Наши приложения

    • Muzbank App Play Market
    • Muzbank Amazon App