MUZBANK



A MOST COMPLETE BANK OF MUSIC INFORMATION

МУЗЫКАЛЬНО-ИНФОРМАЦИОННЫЙ БАНК







    SSugarcult • Memory (аккорды и текст - chords & lyrics)


    397

    Print

    Видео «Memory (Sugarcult)»

    Видео клипы к песне подбираются автоматически сайтом youtube. Возможны некоторые несоответствия клипов песне.

    ↑ Спрятать рекламу ↑






     
    
    
    Sugarcult - Memory
    
    
    Tabbed by: David
    Email: bigdavid351@yahoo.com
    
    Tuning: standard
    
    
    Intro
    
    e:------------------|
    B:------------------|
    G:--6-6-6-6-6-6-6-6-| x2
    D:--x-x-x-x-x-x-x-x-|
    A:--4-4-4-4-4-4-4-4-|
    E:------------------|
    
    Verse 1(only guitar 1)
    
    e:-------------------------------------------------------------------------|
    B:-------------------------------------------------------------------------|
    G:-6-6-6-6-6-6-6-6-8-8-8-8-8-8-8-8-11-11-11-11-11-11-11-11-6-6-6-6-6-6-6-6-| x2 
    D:-x-x-x-x-x-x-x-x-x-x-x-x-x-x-x-x-x--x--x--x--x--x--x--x--x-x-x-x-x-x-x-x-|     
    A:-4-4-4-4-4-4-4-4-6-6-6-6-6-6-6-6-9--9--9--9--9--9--9--9--4-4-4-4-4-4-4-4-|
    E:-------------------------------------------------------------------------|
    
    
    Chorus(both guitars)
    
    e:-----------------------------------------------------------------|
    B:-----------------------------------------------------------------|
    G:-6-6-6-6-6-6-6-6-------------------------------------------------| x2
    D:-6-6-6-6-6-6-6-6-4-4-4-4-4-4-4-4-8-8-8-8-8-8-8-8-6-6-6-6-6-6-6-6-|
    A:-4-4-4-4-4-4-4-4-4-4-4-4-4-4-4-4-8-8-8-8-8-8-8-8-6-6-6-6-6-6-6-6-|
    E:-----------------2-2-2-2-2-2-2-2-6-6-6-6-6-6-6-6-4-4-4-4-4-4-4-4-|
    
    
    Post-Chorus(guitar 1)
    
    e:-------------------------------------------------------------|
    B:-------------------------------------------------------------|
    G:-x-x-x-x-6-x-x-------------------6-x-x-----------------------|
    D:-x-x-x-x-6-x-x-6-4-x-x-4-x-4-4-4-6-x-x-6-4-x-x-4-x-4-4-4-----|
    A:-x-x-x-x-4-x-x-6-4-x-x-4-x-4-4-4-4-x-x-6-4-x-x-4-x-4-4-4-----|
    E:---------------4-2-x-x-2-x-2-2-2-------4-2-x-x-2-x-2-2-2-----|
    
    
    
    Post-Chorus(guitar 2)
    
    
    e:----------------------------------------------------------------|
    B:----------------------------------------------------------------|
    G:-x-x-x-x-13-x-x-8-11-x-x-11-x-11-11-11-13-x-x-8-11-x-x-11-x-11--|
    D:-x-x-x-x-x--x-x-x--x-x-x--x-x--x--x--x--x-x-x-x--x-x-x--x-x--x--|
    A:-x-x-x-x-11-x-x-6--9-x-x--9-x--9--9--9-11-x-x-6--9-x-x--9-x--9--|
    E:----------------------------------------------------------------|
    (do that last 11 thing 3 times like up there)
                   x
                   9
    
    Verse 2(guitar 2)
    
    e:--------------------------------------------------------------|
    B:--------------------------------------------------------------| 
    G:--6-----6----6---6-----6----6---8-----8----8---8-----8----8---|
    D:--------------------------------------------------------------|
    A:----4-4---4-4--4---4-4---4-4--4---6-6---6-6--6---6-6---6-6--6-| 
    E:--------------------------------------------------------------|
          . .   . .  .   . .   . .  .   . .   . .  .   . .   . .  .
    
    
    e:------------------------------------------------------------------|
    B:------------------------------------------------------------------|
    G:--11-----11----11---11-----11----11---6-----6----6---6-----6----6-|
    D:------------------------------------------------------------------|
    A:-----9-9---9-9----9----9-9----9-9---9---4-4---4-4--4---4-4---4-4--| 
    E:------------------------------------------------------------------|
           . .   . .    .    . .    . .   .   . .   . .  .   . .   . .
    
    Later in the song after the solo part the first notes are on 11 and 9 then the rest are the same
    
    
    Verse 2(guitar 1 first few measures listen for timing)
    
    e:------------------|
    B:------------------|
    G:--6~~~--------6~~~|
    D:--6~~~4~~~6~~~6~~~|
    A:--4~~~4~~~6~~~4~~~|
    E:------2~~~4~~~----|
    (then this)
    
    (listen for the timing)
    
    e:---------------------------------------------------------------|
    B:---------------------------------------------------------------| 
    G:-6--6--6--6--8--8--8--8--11--11--11--11--6--6--6-6-6-6-6-6-6-6-|
    D:-x--x--x--x--x--x--x--x---x---x---x---x--x--x--x-x-x-x-x-x-x-x-|
    A:-4--4--4--4--6--6--6--6---9---9---9---9--4--4--4-4-4-4-4-4-4-4-| 
    E:---------------------------------------------------------------|
    
    
    
    Then play the chorus again...
    
    Listen for the timing when they hit this little note...
    
    Guitar 1                                   Guitar 2
    
    e:-------------|                       e:-------------|
    B:-------------|                       B:-------------|
    G:--11---------|                       G:---13--------|
    D:---x---------|                       D:----x--------|
    A:---9---------|                       A:---11--------|
    E:-------------|                       E:-------------|
    
    
    
    Solo(Guitar 1)
    
    e:------------------------------------------------------------------|
    B:--9-9-9-9-9-9-9-9-9-9-7-7-6-6-7-9-9-9-9-9-9-9-9-9-9-7-7-6-6-7----|
    G:------------------------------------------------------------------|
    D:------------------------------------------------------------------|
    A:------------------------------------------------------------------|
    E:------------------------------------------------------------------|
    
    
                                  Fade on this note during pick slide
                                       (listen for timing)
    e:--------------------------------------------------------------------|
    B:----------------------------9-9-9-9-9-9-9-9-9-9-9-9-----------------|
    G:---5b—---7b----9b----7b-11------------------------------------------|
    D:--------------------------------------------------------------------|
    A:--------------------------------------------------------------------|
    E:--------------------------------------------------------------------|
                           Pick Slide right here ^
    
    
    (this is where it gets fun)  (bend that note on the 8th until its in
    unison with the other note and just let that bottom string note ring)
    (listen for timing)
    
    e:---6~~~~~~~~~~~~~~~~~~~~--------------------------------------------|
    B:---6-6--6-6--6-6--6-6--6-6---9--------------9-9-7-7-6-6-7-7-9-9-7-7-|
    G:---8b~~-8b~~-8b~~-8b~~-8b------6~-8~-10~-8~-------------------------|
    D:--------------------------------------------------------------------|
    A:--------------------------------------------------------------------|
    E: -------------------------------------------------------------------|
    
    
    e:------------------------------------------------|
    B:-6-6-7-7----------------------------------------|
    G:-------------------------10~~~~~----------------|
    D:----------4~~~~6~~~~8~~~~---11~~~~~~let fade----|
    A:------------------------------------------------|
    E:------------------------------------------------|
    
    
    
    Solo (guitar 2) 
    
    e:------------------------------------------------------------------|
    B:------------------------------------------------------------------|
    G:--6-6-6-6-6-6-6-6-6-6-6-6-----------------------------------------|x2
    D:--6-6-6-6-6-6-6-6-6-6-6-6-6-6-6-4-4-4-4-4-4-4-4-4-4-4-4-4-4-4-4-4-|
    A:--4-4-4-4-4-4-4-4-4-4-4-4-6-6-6-4-4-4-4-4-4-4-4-4-4-4-4-4-4-4-4-4-|
    E:--------------------------4-4-4-2-2-2-2-2-2-2-2-2-2-2-2-2-2-2-2-2-|
    
    
    e:------------------------------------------------------------------|
    B:------------------------------------------------------------------|
    G:------------------------------------------------------------------| 
    D:--8-8-8-8-8-8-8-8-8-8-8-8-6-6-6-4-4-4-4-4-4-4-4-4-4-4-4-4-4-4-4-4-|
    A:--8-8-8-8-8-8-8-8-8-8-8-8-6-6-6-4-4-4-4-4-4-4-4-4-4-4-4-4-4-4-4-4-|
    E:--6-6-6-6-6-6-6-6-6-6-6-6-4-4-4-2-2-2-2-2-2-2-2-2-2-2-2-2-2-2-2-2-|
    
    
    e:------------------------------------------------------------------|
    B:------------------------------------------------------------------|
    G:------------------------------------------------------------------| 
    D:--8-8-8-8-8-8-8-8-8-8-8-8-6-6-6-4---4---4---4---4---4-------------|
    A:--8-8-8-8-8-8-8-8-8-8-8-8-6-6-6-4---4---4---4---4---4-------------|
    E:--6-6-6-6-6-6-6-6-6-6-6-6-4-4-4-2---2---2---2---2---2-------------|
                                     (Palm mute in between hitting these                                  
                                      notes open)
    
    (After the drums just play the verse 2 part for both guitars from earlier in the song)
    
    right before the chorus hit this low and then turn it up gradually
    e:--------------|
    B:--------------|
    G:----6~~~~-----|
    D:----x---------|
    A:----4~~~~-----|
    E:--------------|
    
    Then play chorus 2 times
    
    Then combine the two of them (you have to listen to it to see what I mean)
    
    Then play the post chorus with both guitars a few times
    
    End on:
    
    Guitar 1                                   Guitar 2
    e:--------------|                          e:--------------|
    B:--------------|                          B:--------------|
    G:--6-----------|                          G:-13--8--11----|
    D:--6---6---4---|                          D:--x--x---x----|
    A:--4---6---4---|                          A:-11--6---9----|                         
    E:------4---2---|                          E:--------------|
    
    That was my first tab hope you guys like it comments just email me
    --Later
     

    Тональность:

    Это должно быть в ТОП-листе! - Топ-лист композиций



    Назад
    Рекомендуем посмотреть другие песни исполнителя «Sugarcult»:

    • Комменты Fb ()
    • Комменты ВК



    Добавить в Избранное Браузера
    Сохранить здесь Очистить


    x

    0


    +
    -

    +
    -

    -

    Авторизация





    Зарегистрироваться

    M

    Дата и время

    • 02:18:44
       

    Социальные ссылки


    Наши приложения

    • Muzbank App Play Market
    • Muzbank Amazon App