MUZBANK



A MOST COMPLETE BANK OF MUSIC INFORMATION

МУЗЫКАЛЬНО-ИНФОРМАЦИОННЫЙ БАНК







    SSuicidal Tendencies • Looking In Your Eyes (аккорды и текст - chords & lyrics)


    290

    Print

    Видео «Looking In Your Eyes (Suicidal Tendencies)»

    Видео клипы к песне подбираются автоматически сайтом youtube. Возможны некоторые несоответствия клипов песне.

    ↑ Спрятать рекламу ↑





     
    
    
    Suicidal Tendensies
    Looking in your eyes
    Transcribed by Ron Fluit (Netherlands)
    
    Intro 
    4*:
    A|--5-5-5-3---333-333-333-333-333--| 
    
    1*
    A|--5-5-5-2--| 
      
    
    Verse
    3*:
    A|--222-222-222-222-222-----------2--222-222-222-222-222--0-3-3-3-2---| 
    E|-----------------------0-3-2-0--------------------------------------| 
    
    1*:
    A|--222-222-222-222-222----------2---222-222-222-222-222--0-3-3-3-3-5-| 
    E|-----------------------0-3-2-0--------------------------------------| 
    
    Chorus
    A|--5-5-5-5-5-3----3-3-3-3-3-2---| 
    
    A|--2-2-2-2-3-3-2----2-2-2-5-3-2-| 
    
    A|--2-2-2-2-3-3-2----2-2-2-3-3-3-| 
    
    A|--2-2-2-2-3-3-2----2-2-2-5-3-2-| 
    
    A|--2-2-2-2-3-3-2----2-2-3-3-3-3-| 
    
    Bridge
    4*
    A|--5-5-5-3---333-333-333-333-333--| 
    1*
    A|--5-5-5-2--| 
    
    Repeat:  Verse + Chorus + Bridge
    
    Outro (Solo) (12/8)
    12*
    A|--2---2-2-2-2---2-2-2-2---2-2-2-3-3-3-| 
    1*
    A|-5-5-5-5-5---5-5-5-5-3--3-3-3-3-3|
    
    2*
    A|--2---2-2-2-2---2-2-2-2---2-2-2-3-3-3-| 
    1*
    A|--5---5-5-5-5-5---5-5-5-5-3--3-3-3-3-3|
    
    2*
    A|--2---2-2-2-2---2-2-2-2---2-2-2-3-3-3-| 
    1*
    A|--5---5-5-5-5-5---5-5-5-5-3--3-3-3-3-3|
    
    2*
    A|--2---2-2-2-2---2-2-2-2---2-2-2-3-3-3-| 
    1*
    A|--5---5-5-5-5-5---5-5-5-5-3--3-3-3-3-3-------------2--2--2--2--2-(2)-|
     

    Тональность:

    Это должно быть в ТОП-листе! - Топ-лист композиций



    Назад
    Рекомендуем посмотреть другие песни исполнителя «Suicidal Tendencies»:

    • Комменты Fb ()
    • Комменты ВК



    Добавить в Избранное Браузера
    Сохранить здесь Очистить


    x

    0


    +
    -

    +
    -

    -

    Авторизация





    Зарегистрироваться

    M

    Дата и время

    • 07:03:18
       

    Социальные ссылки


    Наши приложения

    • Muzbank App Play Market
    • Muzbank Amazon App