MUZBANK



A MOST COMPLETE BANK OF MUSIC INFORMATION

МУЗЫКАЛЬНО-ИНФОРМАЦИОННЫЙ БАНК







    SSum 41 • Hell Song (аккорды и текст - chords & lyrics)


    752

    Print

    Видео «Hell Song (Sum 41)»

    Видео клипы к песне подбираются автоматически сайтом youtube. Возможны некоторые несоответствия клипов песне.

    ↑ Спрятать рекламу ↑





     
    
    
    Итак, Hell Song группы Sum 41. Данная песня, как и Still Waiting, 
      как и все песни этой группы играются в две гитары, причем обе
      со стандартной настройкой(E,B,G,D,A,E). Если вы ее играете на
      одном инструменте, то потимальное звучание будет при игре партий 
      Guitar 2, а из партий Guitar 1 достаточно будет сыграть
      Intro и Solo.
    
    Intro 
      (Guitar 1)
     e-------------------------------------------|
     B-------------------------------------------|
     G-------------------------------------------| 3x
     D|--------1---------1---------1--------2-2-1-1----------|
     A|----2-4---2---2-4---2-2-2-4----2-------------4-4------|
     E|-4----------0----------------------2------------------|
    
      (Guitar 2)
     e-------------------------------------------|
     B-------------------------------------------|
     G--------44444444---------------------------| 2x
     D|-66666666-22222222-44444444-44444444------------------|
     A|-66666666-22222222-22222222-44444444------------------|
     E|-44444444-00000000----------22222222------------------|
    
    
    
    Verse
      (Guitar 2) Palm muted(глушение)
     e-------------------------------------------|
     B-------------------------------------------|
     G--------44444444---------------------------|
     D|-66666666-22222222-44444444-44444444------------------| 4x
     A|-66666666-22222222-22222222-44444444------------------|
     E|-44444444-00000000----------22222222------------------|
      
      Note: Первая половина куплета глушится полностью, а
            вторая половина глушиться частично, тоесть
            выделяется по два аккорда из каждого блока
    
    
    
    Chorus 1
      (Guitar 1)
     e-------------------------------------------|
     B-------------------------------------------|
     G-------------------------------------------| 2x
     D|--------1---------1---------1--------2-2-1-1----------|
     A|----2-4---2---2-4---2-2-2-4----2-------------4-4------|
     E|-4----------0----------------------2------------------|
    
      (Guitar 2) 
     e-------------------------------------------|
     B-------------------------------------------|
     G--------44444444---------------------------| 2x
     D|-66666666-22222222-44444444-44444444------------------|
     A|-66666666-22222222-22222222-44444444------------------|
     E|-44444444-00000000----------22222222------------------|
    
      Далее вновь играем Verse(2 раза)
    
    
    
    Chorus
      (Guitar 2)
     e-------------------------------------------|
     B-------------------------------------------|
     G-9-999999-4-444444-------------------------|
     D|-646-666666-9-999999-4-444444-4-44444-----------------| 4x
     A|-646-666666-7-777777-2-222222-4-44444-----------------|
     E|-424-444444-------------------2-22222-----------------|
    
     e-|
     B-|
     G-|
     D|-66-66-66-6-|
     A|-66-66-66-6-|
     E|-44-44-44-4-|
    
     Далее играется соло. Оно довольно сложное, но стоит того,
     чтобы научиться его играть, потому что звучит прсто обалденно.
    
    Solo
     (Guitar 1)
     e-------------------------------------------------------------------------------------------------
    B|---9-----99999----9-----99999-------------------------------------------------------------------------------
     G|---11(13)---------11(13)-------11----11-11-11-11/9/8-----------------------------------8-9-11-13/11-9/8-8/9-
    D------------------------------------------/11--11-13h14--11-11h13--9-9h11-8----------------------
    A-------------------------------------------------------------------------------------------------
    E-------------------------------------------------------------------------------------------------
    
    --------------------------------------------------------------------------------------------------------------
    -------------------------------------------------------------------9--------11-------12-------14-----14-12-12-
     -------------------------------------------------------------------11(13)---13(15)---14(16)---16(18)----------
    -8h9p8h9p8h9--9h11p9h11p9h11--11h13p11h13p11h13--13h14p13h14p13h14--------------------------------------------
    --------------------------------------------------------------------------------------------------------------
    --------------------------------------------------------------------------------------------------------------
    
    
    
     --------------------------------------------------------------------------------------------------------- 
    --14/16-----16-16-16-16---14/16-----16-16-16-16---16-----19-----------------16-----19--------------------
     --16/18(20)---------------16/18(20)---------------18(20)------18-16-16------18(20)-------18-16-16--------
    ---------------------------------------------------------------------------------------------------------
    ---------------------------------------------------------------------------------------------------------
    ---------------------------------------------------------------------------------------------------------
    
    
    
     -------------------------------------------------------|
     --11/12/11---------------------------------------------|
     -----------13-11-13-11---------------------------------|
     -----------------------13-11-13-11---11-9-11-9---9~----|
     -------------------------------------------------------|
     -------------------------------------------------------|
    
    
    
    Verse 2
     (Guitar 2) Palm muted
    e-----------------------------|--------|
    B-----------------------------|--------|
    G--------44444444-------------|--------|
    D|-66666666-22222222-44444444-44444444----|---4~---|
    A|-66666666-22222222-22222222-44444444----|---4~---|
    E|-44444444-00000000----------22222222----|---2~---|
    
    
     Затем играется Chorus и Guitar 1 играет следующее: 
    
    Bridge
      (Guitar 1)
     e-----|
     B-----|
     G-----|
     D|--4-2-1---------|
     A|--------4-2-1---|
     E---4-|
    
    
    Ending
      (Guitar 2)
     e|----|
     B|----|
     G|----|
     D|-6~-|
     A|-6~-|
     E|-4~-|
    
    
    Everybodyґs got their problems
    Everybody says the same things to you
    Itґs just a matter how you solve them
    And knowing how to change the things youґve been through
    
    I feel Iґve come to realize
    How fast life can be compromised
    Step back to see whatґs going on
    I canґt beleive this happened to you
    This happened to you
    
    Itґs just a problem that Iґm faced with am I
    Not the only one who hates to stand by
    Complications that are first in this line
    With all these pictures running through my mind
    
    Knowing endless consequences
    I feel so useless in this
    Get back, step back, and as for me, 
    i canґt believe.
    
    Part of me, wonґt agree
    Cause I donґt know if this for sure
    Suddenly, suddenly
    I donґt feel so insecure
    
    Part of me, wonґt agree
    Cause I donґt know if this for sure
    Suddenly, suddenly
    I donґt feel so insecure
    Anymore
    
    Everybodyґs got their problems
    Everybody says the same things to you
    Itґs just a matter how you solve them
    But what else are we supposed to do
    
    Part of me, wonґt agree
    Cause I donґt know if this for sure
    Suddenly, suddenly
    I donґt feel so insecure
    
    Part of me, wonґt agree
    Cause I donґt know if this for sure
    Suddenly, suddenly
    I donґt feel so insecure
    Anymore
    
    Why do things that matter the most
    Never end up being our choice
    Now that I find no way so bad
    I donґt think I knew what I had
    
    Why do things that matter the most
    Never end up being our choice
    Now that I find no way so bad
    I donґt think I knew what I had
     

    Тональность:

    Это должно быть в ТОП-листе! - Топ-лист композиций



    Назад
    Рекомендуем посмотреть другие песни исполнителя «Sum 41»:

    • Комменты Fb ()
    • Комменты ВК



    Добавить в Избранное Браузера
    Сохранить здесь Очистить


    x

    0


    +
    -

    +
    -

    -

    Авторизация





    Зарегистрироваться

    M

    Дата и время

    • 18:20:13
       

    Социальные ссылки


    Наши приложения

    • Muzbank App Play Market
    • Muzbank Amazon App