MUZBANK



A MOST COMPLETE BANK OF MUSIC INFORMATION

МУЗЫКАЛЬНО-ИНФОРМАЦИОННЫЙ БАНК







    SSupertones • Return Of The Revolution (аккорды и текст - chords & lyrics)


    336

    Print

    Видео «Return Of The Revolution (Supertones)»

    Видео клипы к песне подбираются автоматически сайтом youtube. Возможны некоторые несоответствия клипов песне.

    ↑ Спрятать рекламу ↑






     
    
    
    Song: Return of the Revolution
    Band: Orange County Supertones
    Album: Loud and Clear
    
    	This is not the complete tab but i just found it out and it will at least be some help to all you Supertones fans.Well here it goes:
    
    Intro/ Chorus:
    
    G|------------------
    D|------------------
    A|-2--5--7---7--5--2
    E|------------------
    
    
    Verses:	(there a lot of variations but these are a few of them)
    
    G|--------------------
    D|-----5--------------
    A|-7-7---7-5h7-0-2-5-7-
    E|--------------------
    
    G|-------------------
    D|-----5-------------
    A|-7-7---7-5h7-0-25--
    E|-------------------
    
    G|---------------------
    D|-----5-------7-5-----
    A|-7-7---7-5h7-----7-5-
    E|---------------------
    
    Then the little breakdown thing goes like this:
    
    G|---------
    D|---------
    A|---------
    E|-0--3--5-
    
    	I know this is not all of it and it might not all be right but t sounds ok. Well luck. God Bless.
    
    send corrections,comments,requests to
    		ybbob182@hotmail.com
     

    Тональность:

    Это должно быть в ТОП-листе! - Топ-лист композиций



    Назад
    Рекомендуем посмотреть другие песни исполнителя «Supertones»:

    • Комменты Fb ()
    • Комменты ВК



    Добавить в Избранное Браузера
    Сохранить здесь Очистить


    x

    0


    +
    -

    +
    -

    -

    Авторизация





    Зарегистрироваться

    M

    Дата и время

    • 00:24:22
       

    Социальные ссылки


    Наши приложения

    • Muzbank App Play Market
    • Muzbank Amazon App