MUZBANK



A MOST COMPLETE BANK OF MUSIC INFORMATION

МУЗЫКАЛЬНО-ИНФОРМАЦИОННЫЙ БАНК







    SSupertones • Supertones Strike Back (аккорды и текст - chords & lyrics)


    345

    Print

    Видео «Supertones Strike Back (Supertones)»

    Видео клипы к песне подбираются автоматически сайтом youtube. Возможны некоторые несоответствия клипов песне.

    ↑ Спрятать рекламу ↑





     
    
    
    Artist: Supertones
    Song: Supertones Strike Back
    Album: Supertones Strike Back
    Tabbed out by: Josiah Ziegler ( tjziegle@piper.hamline.edu )
    
    INTRO:
    
    G|----------------------------|
    D|----------------------------|
    A|--------- -7-------------7-5|
    E|-5-5-5-5-5---5-5-5-5-5------|PLAY THIS 2X
    
    G|------------------------------------|
    D|------------------------------------|
    A|------------7-7---------------7-5-5-|
    E|-5-5-5-5-5-------5-5-5-5-5----------|PLAY THIS 2X
    
    G|---------|
    D|---------|
    A|---------|
    E|-5-3-2-0-|
    VERSE
    G|----------------------------------------------------|
    D|-------------------------9--------------------------|
    A|-------------------7-9------------------------7-9-7-|
    E|-5-5-5-7-7-7-9-9-9---------5-5-5-7-7-7-9-9-9--------|PLAY THIS
    THE WHOLE
    VERSE
    
    CHORUS & AFTER- CHORUS
    G|----------------------------------------|
    D|----------------------------------------|
    A|----------------------------------------|
    E|-5-5-5-5-2-2-2-2-10-10-10-10-12-10-9-7-5|
    
    MIDDLE OF 2ND VERSE
    G|-----------------|
    D|-----------------|
    A|-----------------|
    E|-5-5-0-0-5-5-7-7-|
    
    E-MAIL ME IF YOU FIND ANYTHING IS WRONG.  JOSIAH
     

    Тональность:

    Это должно быть в ТОП-листе! - Топ-лист композиций



    Назад
    Рекомендуем посмотреть другие песни исполнителя «Supertones»:

    • Комменты Fb ()
    • Комменты ВК



    Добавить в Избранное Браузера
    Сохранить здесь Очистить


    x

    0


    +
    -

    +
    -

    -

    Авторизация





    Зарегистрироваться

    M

    Дата и время

    • 01:57:01
       

    Социальные ссылки


    Наши приложения

    • Muzbank App Play Market
    • Muzbank Amazon App