MUZBANK



A MOST COMPLETE BANK OF MUSIC INFORMATION

МУЗЫКАЛЬНО-ИНФОРМАЦИОННЫЙ БАНК







    SSymphony X • Fallen (аккорды и текст - chords & lyrics)


    189

    Print

    Видео «Fallen (Symphony X)»

    Видео клипы к песне подбираются автоматически сайтом youtube. Возможны некоторые несоответствия клипов песне.

    ↑ Спрятать рекламу ↑






     
    
    
    Artist : Symphony X
    Song : Fallen
    
    E----------------------------------------------------------------------|
    B----------------------------------------------------------------------|
    G----------------------------------------------------------------------|
    D----------------------------------------------------------------------|
    A-4-4---4-4---4-4---4-4---4-4---4-4---4-4---4-4---4-4---4-4---4-4-4-5--|
    E-2-2---2-2---2-2---2-2---2-2---2-2---2-2---2-2---2-2---2-2---2-2-2-3--|
    
    E----------------------------------------------------------------------|
    B----------------------------------------------------------------------|
    G----------------------------------------------------------------------|
    D----------------------------------------------------------------------|
    A-4-4---4-4---4-4--------2-1--------4-4---4-4---4-4-------2-1h2p1------|
    E-2-2---2-2---2-2--0-2-2-----0-2ah--2-2---2-2---2-2-0-2-3---------3-2--|
    
    E-------------------------------------------------------------------|
    B-------------------------------------------------------------------|
    G-----7-6-5---------------------------------------------------------|
    D-----5-4-3---7-7-6-5--5ah-----------------------------2-1----------|
    A-2-----------5-5-4-3------4-4---4-4---4-4-------1-2-3-----3-2-1----|
    E-0------------------------2-2---2-2---2-2-0-2-3-----------------3--|
    
    E----------------------------------------------------------------------|
    B----------------------------------------------------------------------|
    G----------------------------------------------------------------------|
    D----------------------------------------------------------------------|
    A-4-4---4-4---4-4--------2-1--------4-4---4-4---4-4-------2-1h2p1------|
    E-2-2---2-2---2-2--0-2-2-----0-2ah--2-2---2-2---2-2-0-2-3---------3-2--|
    
    E--------------------------------------------------------------------|
    B--------------------------------------------------------------------|
    G-----7-6-5----------------------------------------------------------|
    D-----5-4-3---7-7-6-5--5ah-----------------------------2-1-----------|
    A-2-----------5-5-4-3------4-4---4-4---4-4-------1-2-3-----3-2-1---4-|
    E-0------------------------2-2---2-2---2-2-0-2-3-----------------3-2-|
    
    E-----------------------------------------------------------------------------|
    B-------------4h5p4-------4-5-7-12p7p5-13p7p5-10p7p5-12p7p5-8p7p5-10p7p5--7br-|
    G-------2-4h5-------5-4-5-----------------------------------------------------|
    D-2-4-5-----------------------------------------------------------------------|
    A-----------------------------------------------------------------------------|
    E-----------------------------------------------------------------------------|
     Verse 1 :
    E-------------------------------------------------------------------|
    B-------------------------------------------------------------------|
    G-------------------------------------------------------------------|
    D-------------------------------------------------------------------|
    A-4--2h5-4--4p2h4--5-4-2-3-4-4-5~--4--2h5-4--2--4--5--4--2-----2-5--|
    E----------------------------------------------------------2-5------|
    
    E-------------------------------------------------------------------|
    B-------------------------------------------------------------------|
    G-------------------------------------------------------------------|
    D--------------------------------------------------6-6-9-9-8-8-7-7--|
    A-4--2h5-4---5-2-4---5-4-2-3-4-4-5~---4--2h5-4--2--4-4-7-7-6-6-5-5--|
    E-------------------------------------------------------------------|
    repeat above once
    E---------------------------------------------------------------------------------|
    B---------------------------------------------------------------------------------|
    G---------------------------------------------------------------------------------|
    D-9--8--5-------5-4-3------------------------9--8--5-------5-4-3---------------ah-|
    A-7--6--3-------3-2-1---------5-4-2---5-4-2--7--6--3-------3-2-1---------5-4-2-2--|
    E---------0-0-0-------0-0-0-0-3-2-0-0-3-2-0----------0-0-0-------0-0-0-0-3-2-0----|
    
    E---------------------------------------------------------------------------------|
    B-------------------------------------------------------------------------7-------|
    G---------------------------------------------------------------5-8---5-8---8-----|
    D-9--8--5-------5-4-3------------------------5----2---------4-7-----7---------7-5-|
    A-7--6--3-------3-2-1---------5-4-2---5-4-2--3--2-0-----3-6-----------------------|
    E---------0-0-0-------0-0-0-0-3-2-0-0-3-2-0---------2-5---------------------------|
    
    E-------------------------------------------------------------------|
    B-------------------------------------------------------------------|
    G-------------------------------------------------------------------|
    D-------------------------------------------------------------------|
    A-5-5---5-5---5-5-------0-3-2------5-5---5-5---5-5-------0-3-2---0--|
    E-3-3---3-3---3-3---2-3-------2-3--3-3---3-3---3-3---2-3-------2----|
    
    E---------------------------------------------------------------------|
    B---------------------------------------------------------------------|
    G---------------------------------------------------------------------|
    D------------------------------------------------------------2--------|
    A-2--0-3-2--3-0-2--3-2-0-1-2-2--3~--2--0-3-2--0--2--3--2--0----3-0-3--|
    E---------------------------------------------------------------------|
    
    E-------------------------------------------------------------------|
    B-------------------------------------------------------------------|
    G-------------------------------------------------------------------|
    D---------------------------------------------------7-7-6-6-5-5-4---|
    A-2--0-3-2--3-0-2--3-2-0-1-2-2--3~--2--0-3-2--0--2--5-5-4-4-3-3-2---|
    E-------------------------------------------------------------------|
    repeat above once.
    E---------------------------------------------------------------------------------|
    B---------------------------------------------------------------------------------|
    G---------------------------------------------------------------------------------|
    D-9--8--5-------5-4-3------------------------9--8--5-------5-4-3---------------ah-|
    A-7--6--3-------3-2-1---------5-4-2---5-4-2--7--6--3-------3-2-1---------5-4-2-2--|
    E---------0-0-0-------0-0-0-0-3-2-0-0-3-2-0----------0-0-0-------0-0-0-0-3-2-0----|
    
    E---------------------------------------------------------------------------------|
    B-------------------------------------------------------------------------7-------|
    G---------------------------------------------------------------5-8---5-8---8-----|
    D-9--8--5-------5-4-3------------------------5----2---------4-7-----7---------7-5-|
    A-7--6--3-------3-2-1---------5-4-2---5-4-2--3--2-0-----3-6-----------------------|
    E---------0-0-0-------0-0-0-0-3-2-0-0-3-2-0---------2-5---------------------------|
    
    E---------------------------------------------------------------------------------|
    B---------------------------------------------------------------------------------|
    G---------------------------------------------------------------------------------|
    D-9--8--5-------5-4-3------------------------9--8--5-------5-4-3---------------ah-|
    A-7--6--3-------3-2-1---------5-4-2---5-4-2--7--6--3-------3-2-1---------5-4-2-2--|
    E---------0-0-0-------0-0-0-0-3-2-0-0-3-2-0----------0-0-0-------0-0-0-0-3-2-0----|
    
    E-----------------------------------------------------------|
    B-----------------------------------------------------------|
    G-----------------------------------------------------------|
    D-9--8--5-------5-4-3------------------------5----2--4--6---|
    A-7--6--3-------3-2-1---------5-4-2---5-4-2--3--2-0--2--4---|
    E---------0-0-0-------0-0-0-0-3-2-0-0-3-2-0-----------------|
    
    E-----------------------------------------------------------------------------------|
    B-----------------------------------------------------------------------------------|
    G-----------------------------------------------------------------------------------|
    D-----------7~-------------7~----------------------------7~----------------------7--|
    A-6-4-6-7-6--------4-6-4-------6-4-6-7-6~------4-6-7-6-4----6-4-6-7-6----4-7-6-4----|
    E--------------4-6-------6-----------------4-6-------------------------5------------|
    
    E-------------------------|
    B-------------------------|
    G-------------------------|
    D-------------------------|
    A-6-4-6-7-6----4-7-6-4-6--|
    E------------6------------|
    
    E-----------------------------------------------------------------------------|
    B-----------------------------------------------------------------------------|
    G-----------------------------------------------------------------------------|
    D---------------------------------------------------------------2-1-----------|
    A-4-4---4-4---4-4--------2-1--------4-4---4-4---4-4-------1-2-3-----3-2-1-----|
    E-2-2---2-2---2-2--0-2-2-----0-2ah--2-2---2-2---2-2-0-2-3-----------------3-2-|
    
    E----------------------------------------------------------------------|
    B----------------------------------------------------------------------|
    G----------------------------------------------------------------------|
    D-----------5~-------------5~----------------------------5~------------|
    A-4-2-4-5-4--------2-4-2-------4-2-4-5-4~------2-4-5-4-2-----4-2-4-5-4-|
    E--------------2-4-------4-----------------2-4-------------------------|
    
    E-----------------------------------------|
    B-----------------------------------------|
    G-----------------------------------------|
    D-----------5~----------------------------|
    A---2-5-4-2-----4-2-4-5-4----2-5-4-2-4----|
    E-3------------------------4--------------|
     
    E--------------------------------------------------------------------------------|
    B--------------------------------------------------------------------------------|
    G------------------------------------------------------------------6h7p6---------|
    D-------------------------7-6--------------------------------6-7-8-------8-7-5---|
    A-2-2---2-2---2-2---5-7-8-----5-8--2-2---2-2---2-2--4--5-7-8-------------------8-|
    E-0-0---0-0---0-0------------------0-0---0-0---0-0-------------------------------|
     
    E---------------------------|
    B---------------------------|
    G---------------------------|
    D---------------------------|
    A-3--3--3--3-3-2-vib down---|
    E-1--1--1--1-1-0------------|
    Riff over solo 2:
    E--------------------------------------------------------------------------------------|
    B--------------------------------------------------------------------------------------|
    G--------------------------------------------------------------------------------------|
    D------------------------------------------------------------------------------4--2--1-|
    A-4------------4------------4------------4------------4------------4-------------------|
    E-2--0-2--0-2--2--0-2--0-2--2--0-2--0-2--2--0-2--0-2--2--0-2--0-2--2--0-2--0-2---------|
     Riff over solo 3:
    E---------------------------------------------------------------------------------------|
    B---------------------------------------------------------------------------------------|
    G---------------------------------------------------------------------------------------|
    D-7------------7------------7------------7------------7------------7--------------------|
    A-5--3-5--3-5--5--3-5--3-5--5--3-5--3-5--5--3-5--3-5--5--3-5--3-5--5--3-5--3-5---/7--5--|
    E---------------------------------------------------------------------------------------|
    Solo 1
    E--------------------------------------------------------------------------|
    B---------10-12-13-12-10----10-12-10-12-13-12-10-12-10----10-12-10---------|
    G-9-11-12----------------12----------------------------12----------12-11-9-|
    D--------------------------------------------------------------------------|
    A--------------------------------------------------------------------------|
    E--------------------------------------------------------------------------|
    
    E---------------------------------------------------------------------------------|
    B-------10-------------------10-12-10-12----10-12-14-10-12-10-12----10------------|
    G-11-12----12-11-9-8-9-11-12-------------12----------------------12----12-11-12-9-|
    D---------------------------------------------------------------------------------|
    A---------------------------------------------------------------------------------|
    E---------------------------------------------------------------------------------|
    
    E---------------------------------------------------------------------------------|
    B-------10-12-14-12-10----10-12-14-12-14-12----10-----------------------10-12-10--|
    G-11-12----------------12-------------------12----12-11-12----8-9-11-12-----------|
    D----------------------------------------------------------10---------------------|
    A---------------------------------------------------------------------------------|
    E---------------------------------------------------------------------------------|
    
    E-----------------------------------------------------------------------------|
    B----------------------------------------------10-12-13-12-10-----------------|
    G--12-11-9-11-12-11-12-9-------------8-9-11-12----------------12-11-9-8-9-8-9-|
    D------------------------10-9-7-9-10------------------------------------------|
    A-----------------------------------------------------------------------------|
    E-----------------------------------------------------------------------------|
    
    E-----------------------------------------------------------------------------|
    B-------10-12-10-----------------------10-12-8-10-7-8-5-7-8-10-12-10-12-13-12-|
    G-11-12----------12-11-9-8-9-8-9-11-12----------------------------------------|
    D-----------------------------------------------------------------------------|
    A-----------------------------------------------------------------------------|
    E-----------------------------------------------------------------------------|
    
    E------------------------------------------------------------------------------|
    B-10-12-10----13-12-10-12-10-8-13-12-10-12-10-8-13-12-10-----------------------|
    G----------12--------------------------------------------12-11-12-11-9-8-9-9---|
    D------------------------------------------------------------------------------|
    A------------------------------------------------------------------------------|
    E------------------------------------------------------------------------------|
    
    E-----------------------------------------------------------------|
    B-17-16----------16-17-19-20-16-17-19-13-15-17--------------------|
    G-------17-16-17-------------------------------12-14-16-11-12-14--|
    D-----------------------------------------------------------------|
    A-----------------------------------------------------------------|
    E-----------------------------------------------------------------|
    
    E------------------------------------------|
    B------------------------------------------|
    G-8-9-11-----------------------------------|
    D--------7-9-10-------------7--------------|
    A---------------10p7-9p7-10---10-9-7-------|
    E------------------------------------------|
    Solo 2 (with wha) :
    E-17b(20)-14p12----------------------------------17-19-21-19-17-19-|
    B---------------14p12----------------------17h19-------------------|
    G---------------------14p11h14-------16h18-------------------------|
    D------------------------------16h19-------------------------------|
    A------------------------------------------------------------------|
    E------------------------------------------------------------------|
    
    E-14-17-16-14-16-12----12-----------------------------16b(17)-14----14-------|
    B-------------------14-----14-16-14-13-16b-----------------------17-----17b--|
    G--------------------------------------ah---14/17p14-------------------------|
    D----------------------------------------------------------------------------|
    A----------------------------------------------------------------------------|
    E----------------------------------------------------------------------------|
    Riff over keyboard solo 1 :
    E----------------------------------------------------|
    B----------------------------------------------------|
    G----------------------------------------------------|
    D-6-8-------------6-8-------------6-5-----5----------|
    A-6---6-6-6-6-6-6-6---6-6-6-6-6-6-6---6-6-6-6-6-6----|
    E----------------------------------------------------|
    Solo 3 :
    E-----------------------------------------------------------10----------------|
    B-------10-13-10----10-13b-13-10----------10-13-10----10-13----13-10----------|
    G-10-12----------12--------------13-10-13----------13----------------13-10-13-|
    D-----------------------------------------------------------------------------|
    A-----------------------------------------------------------------------------|
    E-----------------------------------------------------------------------------|
    
    E----------------10-----------------------------------------------------------|
    B-10h13p10----10----13-10--------------------------------------10h13p10-------|
    G----------13-------------12h14-10h12p10------------------7-10-------------12-|
    D----------------------------------------12-10-------12-----------------12----|
    A----------------------------------------------12-----------------------------|
    E-------------------------------------------------13--------------------------|
    
    E----8-12-8----8-10h13h17p13h17p13p10-----------------------|
    B-10--------10------------------------13p10h13p10-----------|
    G-------------------------------------------------10p7h10~--|
    D-----------------------------------------------------------|
    A-----------------------------------------------------------|
    E-----------------------------------------------------------|
    
    E----------------------------------------17-18-20-22-20-18-22-20-18--|
    B----------------------------15-17-18-20-----------------------------|
    G-------------10-12-14-15-17-----------------------------------------|
    D-------10-12--------------------------------------------------------|
    A-10-12--------------------------------------------------------------|
    E--------------------------------------------------------------------|
     Riff over keyboard solo 2 :
    E---------------------------------------------|
    B---------------------------------------------|
    G---------------------------------------------|
    D--2-4-------------2-4-----------2-4-----2-4--|
    A--2---2-2-2-2-2-2-2---2-2-2-2-2-2---2-2-2----|
    E---------------------------------------------|
    
    E-----------------------------------|
    B-----------------------------------|
    G-----------------------------------|
    D-----------------------------------|
    A-6---------------------------------|
    E-4--4-4-4-4-4-4-4-4-4-4-4-4-4-4-4--|
    Solo 4 : (guitar synthe duel )
    E------------------------------------------------------------------------|
    B-------------------------------------9-11-9-12----------------13-15-16--|
    G-------6-8-6-9----------------8-9-11--------------------14-16-----------|
    D-6-8-9--------------6--8-9-11---------------------15-17-----------------|
    A------------------------------------------------------------------------|
    E------------------------------------------------------------------------|
    
    E-------------------------------------------------------------------------------|
    B-15-16-15-13-12-13-15-16-15-16-15-13-12-13-15-16-15-13-12-13-15-13-12----------|
    G----------------------------------------------------------------------14-12----|
    D----------------------------------------------------------------------------15-|
    A-------------------------------------------------------------------------------|
    E-------------------------------------------------------------------------------|
    repeat three times last guitar solo
    Riff over guitar solo 4 :
    E-----------------------------|
    B-----------------------------|
    G-----------------------------|
    D-----------------------------|
    A-3---------------2----3------|
    E-1-1-1-1 (sim)-1----1--------|
     ( x 2 )
    E--------------------------------------------------------------|
    B--------------------------------------------------------------|
    G--------------------------------------------------------------|
    D--------------------------------------------------------------|
    A-9/7-----7-------------------9----------7------------------7--|
    E-7/5-5-5-5---7/5/4-0-7/5/4-0-7--7-5-4-0-5--7-5-4-0-7-5-4-0-5--|
    
    E-----------------------------|
    B-----------------------------|
    G-----------------------------|
    D-------------6-7-6-----------|
    A-------5-7-8-------8-7-5-7---|
    E-5-7-8-----------------------|
     
    E---------------------------------------------------------------------------------|
    B---------------------------------------------------------------------------------|
    G---------------------------------------------------------------------------------|
    D-9--8--5-------5-4-3------------------------9--8--5-------5-4-3---------------ah-|
    A-7--6--3-------3-2-1---------5-4-2---5-4-2--7--6--3-------3-2-1---------5-4-2-2--|
    E---------0-0-0-------0-0-0-0-3-2-0-0-3-2-0----------0-0-0-------0-0-0-0-3-2-0----|
    
    E---------------------------------------------------------------------------------|
    B-------------------------------------------------------------------------7-------|
    G---------------------------------------------------------------5-8---5-8---8-----|
    D-9--8--5-------5-4-3------------------------5----2---------4-7-----7---------7-5-|
    A-7--6--3-------3-2-1---------5-4-2---5-4-2--3--2-0-----3-6-----------------------|
    E---------0-0-0-------0-0-0-0-3-2-0-0-3-2-0---------2-5---------------------------|
    
    E---------------------------------------------------------------------------------|
    B---------------------------------------------------------------------------------|
    G---------------------------------------------------------------------------------|
    D-9--8--5-------5-4-3------------------------9--8--5-------5-4-3---------------ah-|
    A-7--6--3-------3-2-1---------5-4-2---5-4-2--7--6--3-------3-2-1---------5-4-2-2--|
    E---------0-0-0-------0-0-0-0-3-2-0-0-3-2-0----------0-0-0-------0-0-0-0-3-2-0----|
    
    E-----------------------------------------------------------|
    B-----------------------------------------------------------|
    G-----------------------------------------------------------|
    D-9--8--5-------5-4-3------------------------5----2--4--6---|
    A-7--6--3-------3-2-1---------5-4-2---5-4-2--3--2-0--2--4---|
    E---------0-0-0-------0-0-0-0-3-2-0-0-3-2-0-----------------|
     
    E-----------------------------------------------------------------------------|
    B-----------------------------------------------------------------------------|
    G-----------------------------------------------------------------------------|
    D-----------------------------------------------------------------------------|
    A-----------------------------------------------------------------------------|
    E-3-2-0-0-2--3-2-0-0-3-2-0-0-2--3-2-0-0-2--3-2-0-0-3-2-0-0-0-0-3-2-0-0-0-0-2--|
     

    Тональность:

    Это должно быть в ТОП-листе! - Топ-лист композиций



    Назад
    Рекомендуем посмотреть другие песни исполнителя «Symphony X»:

    • Комменты Fb ()
    • Комменты ВК



    Добавить в Избранное Браузера
    Сохранить здесь Очистить


    x

    0


    +
    -

    +
    -

    -

    Авторизация





    Зарегистрироваться

    M

    Дата и время

    • 06:56:38
       

    Социальные ссылки


    Наши приложения

    • Muzbank App Play Market
    • Muzbank Amazon App