MUZBANK



A MOST COMPLETE BANK OF MUSIC INFORMATION

МУЗЫКАЛЬНО-ИНФОРМАЦИОННЫЙ БАНК







    SSymphony X • Through The Looking Glass (аккорды и текст - chords & lyrics)


    312

    Print

    Видео «Through The Looking Glass (Symphony X)»

    Видео клипы к песне подбираются автоматически сайтом youtube. Возможны некоторые несоответствия клипов песне.

    ↑ Спрятать рекламу ↑





     
    
    
    Symphony X - Through The Looking Glass
     
    tune down
    
    
    G||------------------|------------------|--------------------|
    D||------------------|------------------|--------------------|
    A||------------------|------------------|--------------------|
    D||------------------|------------------|----------0---0-----|
    
    
    ----------------------|--------------------|--------------------|
    ----------------------|--------------------|--------------------|
    ------------3-5-------|----------------3-5-|--------------------|
    ----------------0---0-|--------------------|--0---0-------------|
    
    
    ----------------------|----------------------|----------------------|
    ----------------------|----------------------|----------------------|
    ----3-5---------------|--------3-5-----------|------------3-5-------|
    --------0---0---------|------------0---0-----|----------------0---0-|
    
    
    ---------------------|--------------------|----------------------|
    ---------------------|--------------------|----------------------|
    ------------3--3-5---|--------------------|----3-5---------------|
    ---------------------|--0---0-------------|--------0---0---------|
    
    
    ----------------------|----------------------|---------------------|
    ----------------------|----------------------|---------------------|
    --------3-5-----------|------------3-5-------|------------3--3-5---|
    ------------0---0-----|----------------0---0-|---------------------|
    
    
    ------------------------|------------------------|-----------------------------|
    --0---0---0----0--0-----|-----0--0---0---0----0--|--0-0-0-0-0-0-0-0-0---0---0--|
    ---------------------0--|--0---------------------|-----------------------------|
    ------------------------|------------------------|-----------------------------|
    
    
    -------------------------|----------------------------|------------------------|
    ----0--0--------0--0---0-|----0----0--0-0-0--0--0--0--|--0---0---0----0--0-----|
    ----------0--0-----------|----------------------------|---------------------0--|
    -------------------------|----------------------------|------------------------|
    
    
    ------------------------|-----------------------------|
    -----0--0---0---0----0--|--0-0-0-0-0-0-0-0-0---0---0--|
    --0---------------------|-----------------------------|
    ------------------------|-----------------------------|
    
    
    -------------------------|--------------------------|----------------------|
    ----0--0--------0--0---0-|----0----0--0-----0-0-0-0-|----------------------|
    ----------0--0-----------|---------------0----------|----------------------|
    -------------------------|--------------------------|--4------4-4-----4----|
    
    
    ----------2-9-11----------4-6-9-11-|--4-6---4-----9-11-4-6---2-4-6-9-11-|
    --------4--------9-11-4------------|------7---4------------4------------|
    -----------------------------------|------------------------------------|
    --4-4---4-------------4-4----------|--4-------4-4------4-----------4-4--|
    
    
    --4-6---4---2-9-11-4-6---2------|-------------------------|
    ------7---4------------4--------|-------------------2--1--|
    ---------------------------4----|----2-----------0--------|
    ----------4--------4-4----------|---------4--4-6----------|
    
    
    ------------------------|------------------------|----------------------|
    ------------------------|-----2--1---------------|-----------2----------|
    --2--4------2-----------|--0--------2--4------2--|----------------2--4--|
    -----------------4--4-6-|------------------------|----4-----------------|
    
    
     
    ---------------------|----------------------|---------------------|
    ------------------2--|----------------------|------2--------------|
    ------2--------------|----2--4------2-------|-----------2--4------|
    -----------4---------|-------------------4--|---------------------|
    
    
    
    ----------------------|------------------------------|
    --------------2-------|------------------------------|
    --2----------------2--|------------------------------|
    -------4--------------|--6--6-6-6--6-6-6--6-6-6--6-6-|
    
    
              
    -----------------------------|-----------------------1---------|
    -----------------------------|-----------1-------1-4---4-1-----|
    -----------------------------|-------2-4---4-2-4-----------4-2-|
    --6--6-6-6--4--6--6-6-6--6-6-|--6--6---------------------------|
    
    
    
    ------------------------------|-------------------------|--------------------|
    ------------------------------|-------------------------|--------------------|
    ------------------------------|-------------------------|--------------------|
    --6--6-6-6--6-6-6--6-6-6--6-6-|--6--6-6-6--4--6------4--|------2------1------|
    
    
           
    --------------------|-------------------|-------------------|
    --------------------|-------------------|-------------------|
    --1------------3----|----------4--------|------3------------|
    --------------------|-------------------|-------------------|
    
    
               
    --------------------|-------------1------|----------0-----------|
    --------------------|--------------------|--1----1--------------|
    ---------------4----|------1-------------|-------------2--------|
    --1-----------------|--------------------|----------------------|
    
    
    
    ---------------------|-----------------------|-------------------|
    ---------------------|-----------------------|--1----------------|
    ----------4----4--4--|----4--4----4--4----4--|-------------------|
    ---------------------|-----------------------|-------------------|
    
    
              
    ------------------|------------------|------------------|------------------|
    ------------------|------------------|------------------|------------------|
    ------------------|------------------|------------------|------------------|
    ------------------|------------------|------------------|------------------|
    
    
             
    ------------------|--------------------|----------------------|
    ------------------|---------------1----|---------1------------|
    ------------------|--------------------|------4---------------|
    ------------------|--1-----------------|--------------1--1----|
    
    
               
    --------------------|--------------------|----------------------|
    --------------------|---------------1----|---------1------------|
    ------2------4------|--------------------|------4---------------|
    --------------------|--1-----------------|--------------1--1----|
    
    
      
    -----------------------|--------------------|----------------------|
    -----------------------|---------------1----|---------1------------|
    ------4----2--1--------|--------------------|------4---------------|
    -----------------4--3--|--1-----------------|--------------1--1----|
    
    
               
    --------------------|--------------------|----------------------|
    --------------------|---------------1----|---------1------------|
    ------2------4------|--------------------|------4---------------|
    --------------------|--1-----------------|--------------1--1----|
    
    
               
    --------------------|--------------------|----------------------|
    --------------------|--------------------|-------------4--2--0--|
    ------2------4------|--------------------|------0---------------|
    --------------------|--4------------6----|----------------------|
    
    
     
    ----------------------|---------------------|---------------------|
    ----------------2--0--|-----------0--2------|-----2--0------------|
    --2------4------------|--------0------------|--2------------------|
    ----------------------|---------------------|---------------------|
    
    
              
    --------------------|----------------------|-------------------|
    --2--------0--------|------2--2--2---------|-------------------|
    --------------------|----------------------|-------------------|
    --------------------|---------------3------|--------5----------|
    
    
    
    --------------------|-------------------|------------------------|
    --------------------|-------------------|------------------------|
    --------------------|-------------------|------------------------|
    --3------------5----|------3------------|--5--5--5----5--5----5--|
    
    
          
    ------------------------|----------------------|-----------------------|
    ------------------------|----------------------|-----------------------|
    -------------2----2--2--|----2--2----2----2----|--2--2----2--2----2----|
    --5----5--5-------------|----------------------|-----------------------|
    
    
          
    -----------------------|-----------------------|-----------------------|
    -----------------------|-------1----1--1----1--|--1----1----1----1--1--|
    --2----2--2----2--2----|--2--------------------|-----------------------|
    -----------------------|-----------------------|-----------------------|
    
    
         
    ----------------------|-----------------------|-----------------------|
    ----1--1----1----1----|--1--1----1--1----1----|--1----1--1----1--1----|
    ----------------------|-----------------------|-----------------------|
    ----------------------|-----------------------|-----------------------|
    
    
        
    ----------------------|----------------------|-----------------------|
    --1----1--------------|------1----1--1----1--|--1----1----1----1--1--|
    ------------2------4--|----------------------|-----------------------|
    ----------------------|----------------------|-----------------------|
    
    
         
    ----------------------|-----------------------|-----------------------|
    ----1--1----1----1----|--1--1----1--1----1----|--1----1--1----1--1----|
    ----------------------|-----------------------|-----------------------|
    ----------------------|-----------------------|-----------------------|
    
    
     
    ----------------------|------------------|------------------------|
    --1----1--------------|------------------|------------------------|
    ------------2------4--|------------------|----------3--3-3-3--3-3-|
    ----------------------|------------------|------------------------|
    
    
            
    -----------------------------|-------------------------0-----|
    -----------------------------|---------------------1-3---3-1-|
    --3--3-3-3--3-3-3--3-3-3--1--|--3--3-3-3--3-3-3--3-----------|
    -----------------------------|-------------------------------|
    
    
             
    ----0-3-5-3-0-------------------|-----------------------------|
    --3-----------3-1---------------|-----------------------------|
    ------------------3--3-3-3--3-3-|--3--3-3-3--3-3-3--3-3-3--1--|
    --------------------------------|-----------------------------|
    
    
           
    ---------------------|-----------------------|--------------------------|
    ---------------------|-----------3--3--3--3--|--3--3--3--3--3--3--3--3--|
    --3------1-----------|-----------------------|--------------------------|
    ----------------6----|----5------------------|--------------------------|
    
    
     
    --------1-1-1--------------|--------------------------|
    --4--4--------3---3--3--3--|--3--3--3--3--3--3--3--3--|
    ---------------------------|--------------------------|
    ---------------------------|--------------------------|
    
    
         
    -------------------------|--------------------------|
    --3-4----2---3--3--3--3--|--3--3--3--3--3--3--3--3--|
    -------------------------|--------------------------|
    -------------------------|--------------------------|
    
    
     
    --------1-1-1--------------|--------------------------|
    --4--4--------3---3--3--3--|--3--3--3--3--3--3--3--3--|
    ---------------------------|--------------------------|
    ---------------------------|--------------------------|
    
    
     
    ---------------------------|--------------------------|
    --3-4----2---1--1--1----1--|--1----1--1--1----1--1----|
    ---------------------------|--------------------------|
    ---------------------------|--------------------------|
    
    
        
    ------------------------------|--------------------------|
    --1--1--1----1--1----1--1--1--|----1--1----1--1--1----1--|
    ------------------------------|--------------------------|
    ------------------------------|--------------------------|
    
    
      
    ----------------------------|--------------------------|
    --1-2---0-0---1--1--1----1--|--1----1--1--1----1--1----|
    ----------------------------|--------------------------|
    ----------------------------|--------------------------|
    
    
        
    ------------------------------|--------------------------|
    --1--1--1----1--1----1--1--1--|----1--1----1--1--1----1--|
    ------------------------------|--------------------------|
    ------------------------------|--------------------------|
    
    
         
    -----------------------|-----------------------|----------------------|
    --1-2---0-0---1--------|-----1-----------------|----------------------|
    -----------------------|--1-----4-----------4--|--2--------4--2--1----|
    -----------------------|-----------------6-----|----------------------|
    
    
       
    ---------------------|-----------------------|----------------------|
    ------------1--------|-----1-----------------|----------------------|
    ------2--4-----------|--1-----4-----------4--|--2--------4--2--1----|
    ---------------------|-----------------6-----|----------------------|
    
    
       
    ---------------------|-----------------------|----------------------|
    ------------2--------|-----2--0-----------0--|-----------0----------|
    ------2--4-----------|--2--------------0-----|--3-----------3--2----|
    ---------------------|-----------------------|----------------------|
    
    
       
    ---------------------|-----------------------|----------------------|
    ---------0--2--------|-----2--0-----------0--|-----------0----------|
    ------3--------------|--2--------------0-----|--3-----------3--2----|
    ---------------------|-----------------------|----------------------|
    
    
              
    ----------------------------|----------------------------------|
    ---------0------------------|----------------------------------|
    ------3-----1-1-1-1-1-1-1-1-|--1-1-1-1-------------------------|
    ----------------------------|----------6-6-6-6-6-6-6-6-6-6-6-6-|
    
    
        
    ----------------------------------|----------------------------------|
    ----------------------------------|----------------------------------|
    ----------------------------------|------------------1-1-1-1-1-1-1-1-|
    --4-4-4-4-4-4-4-4-4-4-4-4-3-3-3-3-|--3-3-3-3-3-3-3-3-----------------|
    
    
        
    ----------------------------------|----------------------------------|
    ----------------------------------|----------------------------------|
    --1-1-1-1-------------------------|----------------------------------|
    ----------6-6-6-6-6-6-6-6-6-6-6-6-|--4-4-4-4-4-4-4-4-4-4-4-4-3-3-3-3-|
    
    
               
    -----------------------------|----------------------|-----------------------|
    -----------------------------|----------------------|-----------------------|
    -----------------------------|----------------------|-----------------------|
    --3-3-3-3-3-3-3-3-5------5-5-|------5----5-5---5----|----5-5-----5----5-5---|
    
    
          
    ----------------------|-----------------------|------------------------|
    ----------------------|-----------------------|------------------------|
    ----------------------|-----------------------|------------------------|
    --5------5-5-----5----|--5-5---5------5-5-----|--5----5-5---5------5-5-|
    
    
        
    ----------------------|-----------------------|----------------------|
    ----------------------|-----------------------|----------------------|
    ----------------------|-----------------------|----------------------|
    ------5----5-5---5----|----5-5-----5----5-5---|--5------5-5-----5----|
    
    
     
    ------------------------|---------------------|-------------------|
    ------------------------|---------------------|------3------------|
    -----------4------------|-----4-4---4---------|-------------------|
    --5--5--5---------------|---------------------|-------------------|
    
    
              
    ---------------------|-------------------|---------------------|
    -------3---3---------|-------------------|---------------------|
    -----3---------------|------4------------|-------4---4---------|
    ---------------------|-------------------|-----6---------------|
    
    
    
    -------------------|-------------------------|-------------------|
    -------------------|-------------------------|-------------------|
    -------------------|-------------------------|-------------------|
    ------6------------|---8--9--6---------------|------9------------|
    
    
             
    ---------------------|-------------------|--------------------|
    ---------------------|-------------------|--------------------|
    -------2---2---------|-------------------|--------------------|
    -----4---------------|------4------------|------4---4---------|
    
    
           
    -------------------|--------------------|-------------------|
    -------------------|--------------------|------2------------|
    ------0------------|--0----0------------|-------------------|
    -------------------|--------------------|-------------------|
    
    
         
    --------------------|------0------------|-------0---0---------|
    --2----2------------|-------------------|-----0---------------|
    --------------------|-------------------|---------------------|
    --------------------|-------------------|---------------------|
    
    
               
    -------------------|------------------|------|---------------|--------------|
    -------------------|------------------|------|---------------|--------------|
    ------0------------|------------------|------|--2------------|--------------|
    -------------------|------------------|------|---------------|--------------|
    
    
              
    --------------|--------------|--------------|--------------|---------------|
    --------------|--------------|--------------|--------------|---------------|
    --------------|--------------|--------------|--------------|--0------------|
    --------------|--------------|--------------|--------------|---------------|
    
    
     
    ---------------|---------------|---------------|---------------|--------------|
    ---------------|---------------|---------------|---------------|--------------|
    --2------------|--5------------|--7------------|--2------------|--------------|
    ---------------|---------------|---------------|---------------|--------------|
    
    
    
    --------------|--------------|---------------|---------------|---------------|
    --------------|--------------|---------------|---------------|---------------|
    --------------|--------------|--0------------|--2------------|--5------------|
    --------------|--------------|---------------|---------------|---------------|
    
    
               
    ---------------|---------------|--------------|--------------|--------------|
    ---------------|---------------|--------------|--------------|--------------|
    --7------------|--2------------|--------------|--------------|--------------|
    ---------------|---------------|--------------|--------------|--------------|
    
    
      
    ---------------|---------------|---------------|---------------|---------------|
    ---------------|---------------|---------------|---------------|---------------|
    --0------------|--2------------|--5------------|--7------------|--2------------|
    ---------------|---------------|---------------|---------------|---------------|
    
    
               
    --------------|--------------|--------------|---------------|---------------|
    --------------|--------------|--------------|---------------|---------------|
    --------------|--------------|--------------|--0------------|--2------------|
    --------------|--------------|--------------|---------------|---------------|
    
    
    
    ---------------|---------------|---------------|--------------|--------------|
    ---------------|---------------|---------------|--------------|--------------|
    --5------------|--7------------|--2------------|--------------|--------------|
    ---------------|---------------|---------------|--------------|--------------|
    
    
         
    ----------|------|--------------|------------------|------------------|
    ----------|------|--------------|------------------|------------------|
    ----------|------|--------------|------------------|------------------|
    ----------|------|--------------|------------------|------------------|
    
    
        
    ---------------------|-----------------------------|
    ---------------------|---------------------4-3-0---|
    ----------2---0---2--|--0-2-3-0-2---0---2--------2-|
    ---------------------|-----------------------------|
    
    
        
    ---------------------0-2----|----------------------------|
    ------0-------0--2-4-----3--|---4---3--4-3-0-------------|
    ----------4-----------------|----------------2-----2---0-|
    --5-4-----------------------|------------------5-4-------|
    
    
       
    --------------------------|-----------------------------|
    --------------------------|--4-3-0-------0-------0--2-4-|
    ----2--0-2-3-0-2---0---2--|--------2---------4----------|
    --------------------------|----------5-4----------------|
    
    
        
    --0-2------------------------|---------------------------|
    ------3---4---3--4-3-0-------|---------------------------|
    -----------------------2-----|---------------------------|
    -------------------------5-4-|--2---0---2--0-2-3-0-2---0-|
    
    
       
    ---------------------------|----------------------------|
    ---------------------------|----------------------------|
    -------2-1-----------------|------------------------2-1-|
    ----2------5-2-0-3-2---0---|--2--0-2-3-0-2---0---2------|
    
    
         
    -----------------------------|----------------------------|
    -----------------------------|----------------------------|
    -----------------------------|-------------2-1------------|
    --5-2-0-3-2---0---2--0-2-3-0-|--2---0---2------5-2-0-3-2--|
    
    
      
    --------------------------|----------------------------|
    --------------------------|----------------------------|
    --------------------------|-----2-1--------------------|
    ---0---2--0-2-3-0-2---0---|--2------5-2-0-3-2---0---2--|
    
    
         
    -----------------------------|----------------------------|
    -----------------------------|----------------------------|
    ---------------------2-1-----|----------------------------|
    --0-2-3-0-2---0---2------5-2-|--0-3-2---0---2--0-2-3-0-2--|
    
    
      
    ----------------------------|--------------------------|
    ----------------------------|--------------------------|
    ----------2-1---------------|--------------------------|
    ---0---2------5-2-0-3-2---0-|----2--0-2-3-0-2---0---2--|
    
    
          
    -----------------------------|-----------------------------|
    -----------------------------|-----------------------------|
    --2-1------------------------|-----------------2-1---------|
    ------5-2-0-3-2---0---2--0-2-|--3-0-2---0---2------5-2-0-3-|
    
    
            
    -----------------------|------------------------|------------------------|
    -----------------------|------------------------|-------------------0----|
    --2---------2-----4----|--1-----1--2---------2--|-----4----1-----1-------|
    ---------4-----4-------|-----6------------4-----|--4----------6----------|
    
    
             
    ------------------------|------------------------|------------------------|
    -------0-----2----2--0--|-----0---------0-----2--|----0-------------------|
    ----0-----0-------------|--2---------0-----0-----|-------4--0-------------|
    ------------------------|------------------------|-------------4------4-4-|
    
    
        
    ----------------------|-----------------------|----------------------|
    ----------------------|-----------------------|----------------------|
    ----------------------|-----------------------|----------------------|
    ------4----4-4---4----|----4-4-----4----4-4---|--4------4-4-----4----|
    
    
    
    --------------------------|--------------------------|
    --------4--4--4--4--4--4--|--0--0--0--0--0--0--0--1--|
    --------------------------|--------------------------|
    --4-4---------------------|--------------------------|
    
    
    
    --------------------1-----|--------------------------|
    --1--1--1--1--1--------4--|--------------4--4--4--4--|
    -----------------3--------|--3--0--------------------|
    --------------------------|--------6--2--------------|
    
    
    
    --------------------------|--------------------------|
    --4--4--0--0--0--0--0--0--|--0--1--1--1--1--1--1-----|
    --------------------------|-----------------------3--|
    --------------------------|--------------------------|
    
    
    
    --1-----------------------|--------------------------|
    -----4--------------4--4--|--4--4--4--4--0--0--0--0--|
    --------3--0--------------|--------------------------|
    --------------6--2--------|--------------------------|
    
    
    
    --------------------------|--------1-----------------|
    --0--0--0--1--1--1--1--1--|--1--------4--------------|
    --------------------------|-----3--------3--0--------|
    --------------------------|--------------------6--2--|
    
    
    
    --------------------------|--------------------------|
    --4--4--4--4--4--4--0--0--|--0--0--0--0--0--1--1--1--|
    --------------------------|--------------------------|
    --------------------------|--------------------------|
    
    
     
    --------------1-----------|-----------3--1-----------|------------------------|
    --1--1--1--------4--------|-----------------0--------|------------------------|
    -----------3--------3--0--|--------1-----------2--1--|-----1--3---------0-----|
    --------------------------|--6--4--------------------|--6------------5-----5--|
    
    
             
    ----------------------|-------------------|-------------------|
    ----------------------|-------------------|-------------------|
    --3--------3--1-------|----------1--------|-------------------|
    -----------------6----|-------------------|------6------------|
    
    
    
    ----------------------|--------------------|---------------------|
    ----------------------|--------------------|---------------------|
    ----------------------|--------------------|---------------------|
    --8--------6--5--3----|--------3--5--------|--1--5--6------------|
    
    
        
    ---------------------|------------------------|----------------------|
    ---------------------|------------------------|----------------------|
    ---------------------|--------------10--8--7--|----------------------|
    --8------------10----|----------10------------|--10--8--6------------|
    
    
              
    --------------------|-------------------|----------------------|
    --------------------|-------------------|----------------------|
    --------------------|-------------------|----------------------|
    --8------------6----|----------8--------|--6--5--3----------3--|
    
    
            
    ----------------------|-------------------|------------------|
    ----------------------|-------------------|------------------|
    ----------------------|----------2--------|------------------|
    --5--------1--5--6----|-------------------|------------------|
    
    
       
    ------------------|------------------|------------------|
    ------------------|------------------|------------------|
    ------------------|------------------|------------------|
    ------------------|------------------|------------------|
    
    
     
    -------------------------|----------------------------|
    -------------------------|----------------------------|
    -------------------------|-------------2-1------------|
    ------2---0---2--0-2-3-0-|--2---0---2------5-2-0-3-2--|
    
    
      
    --------------------------|----------------------------|
    --------------------------|----------------------------|
    --------------------------|-----2-1--------------------|
    ---0---2--0-2-3-0-2---0---|--2------5-2-0-3-2---0---2--|
    
    
         
    -----------------------------|----------------------------|
    -----------------------------|----------------------------|
    ---------------------2-1-----|----------------------------|
    --0-2-3-0-2---0---2------5-2-|--0-3-2---0---2--0-2-3-0-2--|
    
    
      
    ----------------------------|--------------------------|
    ----------------------------|--------------------------|
    ----------2-1---------0-----|----0----0-1---0-------0--|
    ---0---2------5-2-0-3-----5-|-------5-----5-----5------|
    
    
          
    -----------------------------|-----------------------------|
    --2-1------------------------|-----------------2-1---------|
    ------3-0---1-0-------0----0-|--1---0-------0------3-0---1-|
    ----------5-------5------5---|----5-----5--------------5---|
    
    
      
    ---------------------------|---------------------------|
    ---------------------------|-------2-1-----------------|
    --0-------0----0-1---0-----|----0------3-0---1-0-------|
    ------5------5-----5-----5-|---------------5-------5---|
    
    
               
    ----------------------------|------------------------|----------------------|
    ------------------------2-1-|------------------------|----------------------|
    --0----0-1---0-------0------|--3-0---1---------------|----------------------|
    -----5-----5-----5----------|------5---2--------2----|--4----1----1--2------|
    
    
      
    ----------------------|---------4-----4-------|--------------------|
    ----------------------|-----------------------|--------------------|
    ----------------------|-----------------------|-----------------0--|
    ----2----4----1----1--|--0---------0-----2----|--------3-----------|
    
    
    
    --------------------|----------------------|---------------------|
    --------------------|----------------------|---------------------|
    -----------------3--|---------0-----3------|----3--1-------------|
    ----5---------------|------5-----5---------|----------6----------|
    
    
             
    --------------------|-------------------|---------------------|
    --------------------|-------------------|---------------------|
    ----1---------------|------------1------|---------------------|
    -----------------6--|-------------------|----6--5--3----------|
    
    
               
    -----------------------|-------------------|--------------------|
    -----------------------|-------------------|--------------------|
    -----------------------|-------------------|--------------------|
    --3--5--------1--5--6--|------------8------|--------10----------|
    
    
       
    ----------------------------|-------------------|-------------------|
    ----------------------------|-------------------|-------------------|
    --------10--8--7------------|-------------------|-------------------|
    ----10------------10--8--6--|------------8------|--------6----------|
    
    
    
    ----------------------|--------------------|---------------------|
    ----------------------|--------------------|---------------------|
    ----------------------|--------------------|---------------------|
    ----8--------6--5--3--|----------3--5------|----1--5--6----------|
    
    
           
    -------------------|------------------|---------------------|
    -------------------|------------------|--------2---2---2----|
    ----2--------------|------------------|---------------------|
    -------------------|------------------|---------------------|
    
    
      
    -------------------------|-----------------------------|
    --2--2--------2--2---2---|--2----2--2-2-2-2-2-2-2-2-2--|
    --------2--2-------------|-----------------------------|
    -------------------------|-----------------------------|
    
    
          
    ------------------------|---------------------|------------------------|
    ---2---2----2--2--------|--2------------------|------------------------|
    ------------------2--2--|---------------------|----1-3-5---------------|
    ------------------------|-----5---5-----------|--5---------5---5-------|
    
    
       
    --------------------------|---------------------|-------------------|
    ----5-3-----3-5~----------|--------------3-5----|-------------------|
    --------5-3---------------|---------------------|-------------------|
    ------------------5---5---|------------------5--|---5---------------|
    
    
        
    ----------------------|----------------------|-----------------------|
    --3-5-----------------|------3-5-------------|------3--3-5-----------|
    ----------------------|----------------------|-----------------------|
    ------5---5-----------|----------5---5-------|---------------5---5---|
    
    
               
    ---------------------|-------------------|----------------------|
    --------------3-5----|-------------------|--3-5-----------------|
    ---------------------|-------------------|----------------------|
    ------------------5--|---5---------------|------5---5-----------|
    
    
      
    ----------------------|----------------------|---------------------|
    ------3-5-------------|----------------------|---------------------|
    ----------2-----------|--------------0--2----|---------------------|
    -----------------4----|--5------2------------|----4----5------2----|
    
    
     
    -----------------------0--|---------------------------|
    ------------0--2----4-----|--2--4--0--2------------0--|
    --0--2--2-4---------------|--------------4--2--2-4----|
    --------------------------|---------------------------|
    
    
         
    ----------0--2--0--------|-----------------------0--|
    --2----4-----------4--2--|--0---------0--2----4-----|
    -------------------------|-----2--2-4---------------|
    -------------------------|--------------------------|
    
    
     
    ---------------------------|----------0--2--0--0------|
    --2--4--0--2------------0--|--2----4-------------4-2--|
    --------------4--2--2-4----|--------------------------|
    ---------------------------|--------------------------|
    
    
     
    -----------------------0--|---------------------------|
    --0---------0--2----4-----|--2--4--0--2------------0--|
    -----2--2-4---------------|--------------4--2--2-4----|
    --------------------------|---------------------------|
    
    
             
    ----------0--2--0--0------|-----4------2------0--|------------------------|
    --2----4-------------4-2--|--0-------------------|------------------------|
    --------------------------|----------------------|------------------------|
    --------------------------|----------------------|------4--4--4--4--4--4--|
    
    
    
    --------------------------|--------------------------|
    --------------------------|--------------------------|
    --------------------------|--------------------------|
    --0--0--0--0--0--0--1--1--|--1--1--1--1--0--0--0--0--|
    
    
    
    --------------------------|--------------------------|
    --------------------------|--------------------------|
    --------------------------|--------------------------|
    --0--2--4--4--4--4--4--4--|--0--0--0--0--0--0--1--1--|
    
    
    
    --------------------------|--------------------------|
    --------------------------|--------------------------|
    --------------------------|--------2--2--2--2--2--2--|
    --1--1--1--1--0--0--0--0--|--0--2--------------------|
    
    
    
    --------------------------|--------------------------|
    --------------------------|--------------------------|
    --------------------------|--------------------------|
    --5--5--5--5--5--5--6--6--|--6--6--6--6--5--5--5--5--|
     

    Тональность:

    Это должно быть в ТОП-листе! - Топ-лист композиций



    Назад
    Рекомендуем посмотреть другие песни исполнителя «Symphony X»:

    • Комменты Fb ()
    • Комменты ВК



    Добавить в Избранное Браузера
    Сохранить здесь Очистить


    x

    0


    +
    -

    +
    -

    -

    Авторизация





    Зарегистрироваться

    M

    Дата и время

    • 17:53:09
       

    Социальные ссылки


    Наши приложения

    • Muzbank App Play Market
    • Muzbank Amazon App